» » »

Panda, Cita En El Quirofano Tabs (ver.1)

Artists:  A B C D E F G H I J K L M N O P Q R S T U V W X Y Z # 

Cita En El Quirofano Tabs (ver.1)

Panda Tabs
Rating:
0/5 (0 votes)
Cita En El Quirofano lessons Tabs too difficult? Try these video lessons and learn fast
                la guitarra se afina en (bemol) asi como todas las canciones de panda
el solo esta 100% bien

solo

E(b)---------------------------------------------77--99--10(resbala)12-12~-|
A(b)--------------------------------------77--99---------------------------|
D(b)-------------------------------77--99----------------------------------|
G(b)------------------------77--99-----------------------------------------|
B(b)------------55--77--99-------------------------------------------------|
E(b)-----55--77------------------------------------------------------------|

    (10h12)-(12h14)1414141414(resbala)16(resbala)17~(16h17h19)19-17-16-17-|
     ---------------------------------------------------------------------|
     ---------------------------------------------------------------------|
     ---------------------------------------------------------------------|
     ---------------------------------------------------------------------|
     ---------------------------------------------------------------------|

    14h17---17-17-17-17----------------------------------------------------|
    ------17-15-14-12--------------17h19-17h19-17~-------------------------|
    ---------------------14~--1414-----------------------------------------|
    -----------------------------------------------------------------------|
    -----------------------------------------------------------------------|
    -----------------------------------------------------------------------|


     (jala para abajo(|))
     --|---------------|----------------|---------------|-------------------|
     --|---------------|----------------|---------------|-------------------|
     -16--14----------16--14-----------16--14----------16--14---------------|
     --------16--14----------16--14-----------16--14----------16--14--------|
     -----------------------------------------------------------------------|
     -----------------------------------------------------------------------|


     -----------------------------------------------------------------------|
     ---17h19-17h19-17~-----------------------------------------------------|
     -----------------------------------------------------------------------|
     -----------------------------------------------------------------------|
     -----------------------------------------------------------------------|
     -----------------------------------------------------------------------|


     -17-16-14------------16-14-12-----------|----------|--|-----------------|
     ----------17-15-16------------15-14-----|----------|--|----14-12--------|
     ------------------------------------16-16-14------16-16----------14-----|
     --------------------------------------------16-14-----------------------|
     ------------------------------------------------------------------------|
     ------------------------------------------------------------------------|

                                                        |
     --16-14---14---16--14----14---16---14----14-16-17-17--------------------|
     --------17------------17--------------17--------------------------------|
     ------------------------------------------------------------------------|
     ------------------------------------------------------------------------|
     ------------------------------------------------------------------------|
     ------------------------------------------------------------------------|
            

comments powered by Disqus
↑ Back to top | Panda Tabs for Cita En El Quirofano. Lyrics for acoustic guitar and electric guitar. Tablatures and chords are parodies/interpretations of the original songs. You may use it for private study, scholarship, research or language learning purposes only