» » »

Panda, Cita En El Quirofano Tabs (ver.3)

Artists:  A B C D E F G H I J K L M N O P Q R S T U V W X Y Z # 

Cita En El Quirofano Tabs (ver.3)

Panda Tabs
Rating:
0/5 (0 votes)
Cita En El Quirofano lessons Tabs too difficult? Try these video lessons and learn fast
                hola amigos soy miguel el piña y aqui traigo esta cancion yo pienso que esta un 95% bien asi que chequenla



intro: guitarra 2
eb|-----------------------------------|
Bb|-----------------------------------|
Gb|-----------------------------------|
Db|99999-99-99-99-99-999999-99-99-99--| 
Ab|77777-77-77-77-77-777777-77-77-77--|
Eb|55555-55-55-55-55-555555-55-55-55--|

Guitarra 1

eb|------------------------------------------------------------|
Bb|------------------------------------------------------------|
Gb|------------------------------------------------------------|
Db|------------------------66-66-66-66-222222-22-22-22-22------|
Ab|44444-44-44-44-44-------77-77-77-77-444444-44-44-44-44------|
Eb|55555-55-55-55-55-00000-------------------------------------|

eb|-----------------------------------|
Bb|-----------------------------------|
Gb|-----------------------------------|
Db|-44444-44-44-(5)------6------6-----| x2
Ab|-55555-55-55—(4)------7------7-----|
Eb|-----------------0000---0000-------|

Verso 1: ambas guitarras

A                          E                                  F#m
Si tan solo pudieras entender Mil veces te lo explicare otra vez
         D           E                A                                E
Eres tan buena pretendiendo que estas bien Evitar palabras de mas excusas
inventar
                 F#m                          D       E
Poderte tocar no puedo parar Te juro que yo no puedo parar

Guitarra 1: esto puede q no les suene, pero escuchen bien
la rola y asi es. ademas asi la tocan ellos.

eb|------------------------------------------------------------|
Bb|------------------------------------------------------------|
Gb|------------------------------------------------------------|
Db|------------------------------------------------------------|
Ab|-77-777-77-777-77-777-77-777-22-222-22-222-22-222-22-222----|
Eb|-55-555-55-555-55-555-55-555-33-333-33-333-33-333-33-333----|
   (         p.m.           p.m                    p.m.       )
                                                                 x1
eb|------------------------------------------------------------|
Bb|------------------------------------------------------------|
Gb|------------------------------------------------------------|
Db|-----------------------------77-777-77-777-99-999-99-999----|
Ab|-44-444-44-444-44-444-44-444-55-555-55-555-77-777-77-777----|
Eb|-22-222-22-222-22-222-22-222--------------------------------|
   (        p.m.           p.m.                  p.m.         )

si hola no te hubiera dicho yo jamas tendriamos que decir adios
no me mereces yo soy mucho para...



Ab|-77-777-77-777-77-777-77-777-22-222-22-222-22-222-22-222----|
Eb|-55-555-55-555-55-555-55-555-33-333-33-333-33-333-33-333----|
   (         p.m.           p.m                    p.m.       )

Gb|-----------------------------777-7/9-99-77777777------------|
Db|-----------------------------777-7/9-99-77777777------------|
Ab|-44-444-44-444-44-444-44-444-555-5/7-77-55555555------------|
Eb|-22-222-22-222-22-222-22-222--------------------------------| x1
   (        p.m.           p.m.)


Tu corazón esta discusión a nada llegara pues no haces ni el mínimo
                D       E    DDDDDDDD(guitarra2
Esfuerzo déjame déjame opinar

Guitarra 2

Ab|-77-7----------|
Eb|-55-5----------|

Coro: guitarra 1

guitarra 1
eb|-------------------------------------------------------|
Bb|-------------------------------------------------------|
Gb|----6----6---6---6---6---6---6----6--------------------|
Db|--7----7---7---7----7---7---7----7---------------------| x2
Ab|------------------4---4---5----7-----------------------|
Eb|-5---5---5---5-----------------------------------------|

(la primera ves el primero se hace solo tres veces)

Tenemos una cita en el quirófano
Vendrá el doctor me aplicara cirugía
Me sacara el corazón transplante de corazón
Ahí te va mi dolor


Se repite intro x1

Verso 2

eb|-------------------------------------------------------|
Bb|-------------------------------------------------------|
Gb|-----------------------------------7777-7-9999-9-------|
Db|-9-9-6-6-9-9-1-1-2-2-1-1-4-4-6-6---xxxx-x-xxxx-x-------|x1
Ab|--7-7-7-7-7-7-2-2-2-2-2-2-2-2-7-7—(5555-5-7777-7)------|
Eb|-------------------------------------------------------|

eb|-------------------------------------------------------|
Bb|-------------------------------------------------------|
Gb|-------------------------------------------------------|
Db|-9-9-6-6-9-9-1-1-2-2-1-1-4-4-6-6-----------------------|x1
Ab|--7-7-7-7-7-7-2-2-2-2-2-2-2-2-7-7—---------------------|
Eb|-------------------------------------------------------|

eb|---------------------------|
Bb|---------------------------|
Gb|----777-7/9-99-77777777----|
Db|----777-7/9-99-77777777----|
Ab|--—-555-5/7-77-55555555----|
Eb|---------------------------|

Mentiras dijiste saber por que Es algo que siempre
eh querido saber
Inventare algún castigo para hacerte sufrir Las cosas no se van
a quedar así Permíteme hacerte sufrir
                  D           E   DDDDDDDD guitarra2
por favor Pues no existe el amor

Coro2:

guitarra 1
eb|------------------------------------------------------|
Bb|------------------------------------------------------|
Gb|--------6---6---6---6---6---6----6--------------------|
Db|------7---7---7----7---7---7----7---------------------| x1
Ab|------------------4---4---5----7----------------------|
Eb|-----5---5---5----------------------------------------|



Incluye intro x1

Solo

Guitarra 1
eb|-------------------------------------------------7777999910-12~|
Bb|-----------------------------------------77779999--------------|
Gb|---------------------------------77779999----------------------|
Db|------------------------77779999-------------------------------|
Ab|---------------77779999----------------------------------------|
Eb|-555577779999--------------------------------------------------|

Continua:

eb|-121212121212~-10h12-14~14141414--16~16161616-17~------|
Bb|-------------------------------------------------------|
Gb|-------------------------------------------------------|

eb|-16-17/--------------------17p16-17-17p16--------------|
Bb|-------------------------------------------------------|
Gb|-------------------------------------------------------|

eb|-17-14-17----17----17----17----17----------------------|
Bb|----------17----15----14----------------17/-17/-17~----|
Gb|----------------------------16----14--/----------------|
   El solo se debe tocar sumamente rapido para alcanzar
el tiempo d la rola. lo pueden tocar como lo han puesto en las otras
transcripciones pero asi lo tocan los d panda en el dvd.

Guitarra 2
eb|-----------------------------------------------------------------|
Bb|-----------------------------------------------------------------|
Gb|-----------------9-9-9-9-9-9-9-9-6-6-6-6-6-6-6-6-7-7-7-7-9-9-9-9-|
Db|-7-7-7-7-7-7-7-7-9-9-9-9-9-9-9-9-6-6-6-6-6-6-6-6-7-7-7-7-9-9-9-9-|
Ab|-7-7-7-7-7-7-7-7-7-7-7-7-7-7-7-7-4-4-4-4-4-4-4-4-5-5-5-5-7-7-7-7-|
Eb|-5-5-5-5-5-5-5-5-------------------------------------------------|
  Las cuerdas se detienen con la mano izquierda a cada rasgueo para q no
  Suene mal.
La otra parte d la guitarra 1 no me la se completa pero se me lo d
la guitarra 2:

Guitarra 2:

eb|--------------------------------------------------------|
Bb|--------------------------------------------------------|
Gb|---77777777-99999999-----------------------77777777/9---|
Db|---77777777-99999999---7777-6666-444x4444--77777777/9---|
Ab|--—55555555-77777777---7777-6666-444x4444--55555555/7---|
Eb|---------------------/-5555-4444-222x2222---------------|
Róbame el dolor quiero que sepas que se siente Para que me pidas perdón

Ultimo coro:

Guitarra 2
eb|----------------------------------------|
Bb|----------------------------------------|
Gb|----------99999999-66666666-7777-9999---|
Db|-77777777-99999999-66666666-7777-9999---|
Ab|-77777777-77777777-44444444-5555-7777---|
Eb|-55555555-------------------------------|

Guitarra 1:


eb|-------------------------------------------------------|
Bb|-------------------------------------------------------|
Gb|----6----6---6---6---6---6---6----6--------------------|
Db|--7----7---7---7----7---7---7----7---------------------|x1
Ab|------------------4---4---5----7-----------------------|
Eb|-5---5---5---5-----------------------------------------|

creo q en esta parte todo sube un tono, menos la sexta cuerda.
toquelo como les suene mejor.
(esta parte en el disco no se oye, pero si la tocan suena bien
ademas en el dvd cuando ponen la cancion sin voz se oye)

Guitarra 2:
eb|--------------------------------------------------|
Bb|--------------------------------------------------|
Gb|----------99999999-66666666-7777------------------|
Db|-77777777-99999999-66666666-7777-9999-9-9999-9----|
Ab|-77777777-77777777-44444444-5555-7777-7-7777-7----|
Eb|-55555555------------------------5555-5-5555-5----|

Guitarra 1:

guitarra 2
eb|----------------------------------------------------------|
Bb|----------------------------------------------------------|
Gb|-----6--6---6---6---6---6---6-----------------------------|
Db|---7--7---7---7----7---7---7--------------6-------6-------|
Ab|------------------4---4---5---------------7-------7-------|
Eb|-5---5---5---5-----------------------0000----0000---------|



Guitarra 2:
eb|-----------------------------------------------------------|
Bb|-----------------------------------------------------------|
Gb|-----------------------------------------------------------|
Db|-99999-99-99-99-99--99999-99-99-99-99--9999-99-99-99-99----|
Ab|-77777-77-77-77-77--77777-77-77-77-77--7777-77-77-77-77----|
Eb|-55555-55-55-55-55--55555-55-55-55-55--5555-55-55-55-55----|


Db|---4---6---4~~~-~-~-~-------------|
Ab|---5---7---5~~~-~-~-~-------------|



Guitarra 1

eb|------------------------------------------------------------|
Bb|------------------------------------------------------------|
Gb|------------------------------------------------------------|
Db|------------------------66-66-66-66-222222-22-22-22-22------|
Ab|44444-44-44-44-44-------77-77-77-77-444444-44-44-44-44------|
Eb|55555-55-55-55-55-00000-------------------------------------|

eb|----------------------------------------------|
Bb|----------------------------------------------|
Gb|----------------------------------------------|
Db|-44444-44-44-(5)------------------------------| x2
Ab|-55555-55-55—(4)------2---4---2~~~-~-~-~------|
Eb|----------------------3---5---3~~~-~-~-~------|
            

comments powered by Disqus
↑ Back to top | Panda Tabs for Cita En El Quirofano. Lyrics for acoustic guitar and electric guitar. Tablatures and chords are parodies/interpretations of the original songs. You may use it for private study, scholarship, research or language learning purposes only