» » »

Panda, Buen DíA Tabs (ver.1)

Artists:  A B C D E F G H I J K L M N O P Q R S T U V W X Y Z # 

Buen DíA Tabs (ver.1)

Panda Tabs
Rating:
0/5 (0 votes)
Buen DíA lessons Tabs too difficult? Try these video lessons and learn fast
                Panda
Buen Dia 



intro
Hooo-Hooo...
e|---------------------------------------------|
b|---------------------------------------------|
g|-777xx------777xx------777xx-----------------|x2 
d|-777xx-5555-777xx-5555-777xx-5555-999xx-7777-|
a|-555xx-5555-555xx-5555-555xx-5555-999xx-7777-|
d|-------3333-------3333-------3333-777xx-5555-|

 verso: te conosco desde hace muchas horas...
e|-------------------|
b|-7-7x--------------|
g|-7-7x-666-4444-6-6-|x4 
d|-7-7x-777-5555-7-7-|
a|-5-5x-777-5555-7-7-|
d|------555-3333-5-5-|

e|---------------------------------------------|
b|---------------------------------------------|
g|-777xx------777xx------777xx-----------------|x2 
d|-777xx-5555-777xx-5555-777xx-5555-999xx-7777-|
a|-555xx-5555-555xx-5555-555xx-5555-999xx-7777-|
d|-------3333-------3333-------3333-777xx-5555-|

verso: tu eres todo y yo no soy nada
e|-------------------|
b|-7-7x--------------|
g|-7-7x-666-4444-6-6-|x4 
d|-7-7x-777-5555-7-7-|
a|-5-5x-777-5555-7-7-|
d|------555-3333-5-5-|

coro: y yo kiero verte otravez...
e|-------------------|
b|-------------------|
g|-7-7---------------|x4 
d|-7-7-555-7-7777777-|
a|-5-5-555-7-7777777-|
d|-----333-5-5555555-|

Hooo-Hooo...
e|---------------------------------------------|
b|---------------------------------------------|
g|-777xx------777xx------777xx-----------------|x2 
d|-777xx-5555-777xx-5555-777xx-5555-999xx-7777-|
a|-555xx-5555-555xx-5555-555xx-5555-999xx-7777-|
d|-------3333-------3333-------3333-777xx-5555-|

 verso: tu linda cara no sale de mi mente...
e|-------------------|
b|-7-7x--------------|
g|-7-7x-666-4444-6-6-|x4 
d|-7-7x-777-5555-7-7-|
a|-5-5x-777-5555-7-7-|
d|------555-3333-5-5-|

coro: y yo kiero verte otravez...
e|-------------------|
b|-------------------|
g|-7-7---------------|x4 
d|-7-7-555-7-7777777-|
a|-5-5-555-7-7777777-|
d|-----333-5-5555555-|

terminando el coro va esto cuando la rola se calma
e|---------------------------------------------|
b|---------------------------------------------|
g|---------------------------------------------| 
d|---------------------------------------------|
a|-5-3/5/3/0/3---3/5/3/0/7--3/5/3/0/3--3/5/3/0-|
d|---------------------------------------------|

All right
e|-------------------------------------------------------------------|
b|-77-777---------------------------77-777---------------------------|
g|-77-777--6-7-6---66-666--6-7-6----77-777--6-7-6----66-666--6-7-6---| 
d|-77-777--------7-77-777--------7--77-777--------7--77-777--------7-|
a|-55-555----------77-777-----------55-555-----------77-777----------|
d|-----------------55-555----------------------------55-555----------|

e|---------------------------------------------------------------------|
b|-77-777---------------------------77-777-----------------------------|
g|-77-777--6-7-6---66-666--6-7-6----77-777--6-7-6----66-666--6-7-6---7-| 
d|-77-777--------7-77-777--------7--77-777--------7--77-777--------7---|
a|-55-555----------77-777-----------55-555-----------77-777------------|
d|-----------------55-555----------------------------55-555------------|


me dejasteeee...
e|----------------------------|
b|-77-7x----------------------|
g|-77-7x-6xxx66-4xx4-x-6xxx66-| 
d|-77-7x-7xxx77-5xx5-x-7xxx77-|
a|-55-5x-7xxx77-5xx5-x-7xxx77-|
d|-------5xxx55-3xx3-x-5xxx55-|

coro: y yo kiero verte otravez...
e|-------------------|
b|-------------------|
g|-7-7---------------|x4 
d|-7-7-555-7-7777777-|
a|-5-5-555-7-7777777-|
d|-----333-5-5555555-|

Hooo-Hooo...
e|---------------------------------------------|
b|---------------------------------------------|
g|-777xx------777xx------777xx-----------------|x2 
d|-777xx-5555-777xx-5555-777xx-5555-999xx-7777-|
a|-555xx-5555-555xx-5555-555xx-5555-999xx-7777-|
d|-------3333-------3333-------3333-777xx-5555-|

 outro  pero yo te kiero igual
e|--------------------|
b|--------------------|
g|------------------7-| 
d|-9-9-9--7-7-7--5--7-|
a|-9-9-9--7-7-7--5--5-|
d|-7-7-7--5-5-5--3----|


si no le entienden al rasgueo ahi estan los acordes 
solo escuchen la rola y ustedes saben como tocarla
gracias luego les mando mas tabs eso es todo 
 Y ARRIBA EL PUNK    (Gabriel Flores) "The Original Punkater"
 
Acapulco Gro.
            

comments powered by Disqus
↑ Back to top | Panda Tabs for Buen DíA. Lyrics for acoustic guitar and electric guitar. Tablatures and chords are parodies/interpretations of the original songs. You may use it for private study, scholarship, research or language learning purposes only