>
 >
Buen Dia

Buen Dia Guitar Tabs

Panda - Buen Dia chords, tabs, tablatures, lyrics

Guitar lessons | Add/correct | Request | Top 50 tabs Artists:  A B C D E F G H I J K L M N O P Q R S T U V W X Y Z 0-9

Buen Dia Guitar Tabs – Panda

CD, Sheet music, Poster

Do you like Buen Dia? Share with your friends now
ChordsTabsTabs v2Ukulele
Panda 
Buen Día 
Arroz Con Leche

Intro    woooooooooooo....
e|-----------------------------------------|
b|-----------------------------------------|
g|-----------------------------------------|
d|-6666------6666------6666----------------|
a|-4444-4444-4444-4444-4444-4444-8888-6666-|
E|------2222------2222------2222-6666-4444-|x2
  
Verso
e|-----------------------------|
b|-----------------------------|
g|-----------------------------|
d|-666666----------------------|
a|-444444-666666-444444-666666-|
E|--------444444-222222-444444-|x4

Riff 
e|-----------------------------------------|
b|-----------------------------------------|
g|-----------------------------------------|
d|-6666------6666------6666----------------|
a|-4444-4444-4444-4444-4444-4444-8888-6666-|
E|------2222------2222------2222-6666-4444-|x1

Verso x4 

Coro
e|--------------------|
b|--------------------|
g|--------------------|
d|-6666---------------|
a|-4444-4444-66666666-|
E|------2222-44444444-|x4

Intro x2
Verso x4
Coro x4

Solo 
e|--------------------------------------------|
b|--------------------------------------------|
g|--------------------------------------------|
d|--------------------------------------------|
a|-6\4-6-8-6-8---6-8-6-8-4--6-8-6-8---6-8-6-8-|
E|-------------6--------------------6---------|

e|---------------------------|   e|---|
b|---------------------------|   b|---|
g|-6666----------------------|   g|-6-|
d|-xxxx----------------------|   d|-x-|
a|-4444-6-8-6-4-8888-6-8-6-4-|   a|-4-|
E|--------------6666---------|x4 E|---|

Puente
"Me dejaste pero yo te kiero igual"
e|-x--x-x-|
b|-9--9-7-|
g|-10-8-6-|checa el ritmo y los tiempos
d|-11-x-x-|
a|-x--x-x-|
E|--------|

Coro x4

Outro
   woooooooooooo....
   "Me dejaste..."
e|-----------------------------------------|
b|-----------------------------------------|
g|-----------------------------------------|
d|-6666------6666------6666----------------|
a|-4444-4444-4444-4444-4444-4444-8888-6666-|
E|------2222------2222------2222-6666-4444-|x1

e|--------------------------------------------------------|
b|--------------------------------------------------------|
g|------------------------------------------------------6-|
d|-6666------6666------6666-----------------------------4-|
a|-4444-4444-4444-4444-4444-4444--8-8-8-8--6-6-6-6--4-----|
E|------2222------2222------2222--6-6-6-6--4-4-4-4--2-----|x1

Es todo, Let's Fuck!!!





Comments


Popular Panda tabs & chords
Y De La Gasolina Renacio El Amor Bass Tabs
Nuestra Afliccin Chords
3+1 2 Tabs
Adheridos Separados Tabs
Los Malaventurados No Lloran 4 Tabs
Miedo A Las Alturas Tabs
Narcisista Por Excelencia 6 Tabs
Si Esto Fuese Realidad Tabs
So Violento So Macabro Tabs
Ya No Jalaba Tabs


Song lyrics



↑ Back to top | Tablatures and chords are parodies/interpretations of the original songs. You may use it for private study, scholarship, research or language learning purposes only
© 2014 AZChords.com Contact us | Privacy policy | DMCA | Add/correct tabs | Request tabs | Top 50 tabs