» » »

Ando Pedo Y Ella Está Aquí Bass tabs (ver.1)

Artists:  A B C D E F G H I J K L M N O P Q R S T U V W X Y Z # 

Ando Pedo Y Ella Está Aquí Bass tabs (ver.1)

Panda
Rating:
4/5 (1 vote)

Hard to play? Try these video lessons and learn fast.
                1/2 tono abajo.

G-----------------------------------------------------------------
D-----------------------------------------------------------------
A-----------------------------------------------------------------
E-000000-222222-333333-222222-000000-222222-333333-555555---------

G--------------------------------------------------------------------------
D---------------------9---7------------------------9----7------------------
A-------55555-33333-7--7-5--5---------55555-33333-7--7-5--5-3--3-2-0-------
E-33333--------------------------33333----------------------------------3--

G-----------------------------------------------------------------
D--------------------------------------------------9----7---------
A-------55555-33333-77777-99999-------55555-33333-7--7-5--5-------
E-33333-------------------------33333-----------------------------

G-----------------------------------------------------------------------
D--------------------------------------------------9----7---------------
A-------55555-33333-77777-99999-------55555-33333-7--7-5--5--333--555---
E-33333-------------------------33333------------------------------------

G------------------------------------------------------------------------
D-------------------------------------------------------------------------
A------22222-33333-55555-33333------------55555------22222-33333-55555----
E-33333------------------------33333-55555------33333---------------------

G-----------------------------------------------------------------
D-----------------------------------------------------------------
A-----7-----7----7-----7--3-2-0-----------------------------------
E-0000--0000--00---0000---------3---------------------------------

G-----------------------------------------------------------------
D-----------------------------------------------------------------
A------5-3-2-00000--55-3-2----------------------------------------
E-33333--------------------33333----------------------------------

G-----------------------------------------------------------------
D-----------------------------------------------------------------
A-----------------------------------------------------------------
E-333333333333333-------------------------------------------------
            
Hard to play? Try these video lessons and learn fast. | Correct




comments powered by Disqus
↑ Back to top | Tablatures and chords are parodies/interpretations of the original songs. You may use it for private study, scholarship, research or language learning purposes only