» » »

Panda, Ando Pedo Y Ella Esta Aqui Tabs (ver.1)

Artists:  A B C D E F G H I J K L M N O P Q R S T U V W X Y Z # 

Ando Pedo Y Ella Esta Aqui Tabs (ver.1)

Panda Tabs
 Rating:
4/5 (5 votes)
Ando Pedo Y Ella Esta Aqui lessons Tabs too difficult? Try these video lessons and learn fast
                PANDA: "ANDO PEDO Y ELLA ESTA AQUI"
P.M: Palm Mute (Palma sobre las cuerdas)
/: Slide down (deslizar hacia abajo)


INTRO (Lo hacen las dos guitarras)
|-----------------------------------------------------------------------------|
|-----------------------------------------------------------------------------|
|-----------------------------------------------------------------------------|
|-2-2-2-2-2-2-2-2-2--3-3-3-3-3-3-3-3-3--4-4-4-4-4-4-4-4-4--3-3-3-3-3-3-3-3-3--|
|-2-2-2-2-2-2-2-2-2--3-3-3-3-3-3-3-3-3--4-4-4-4-4-4-4-4-4--3-3-3-3-3-3-3-3-3--|
|-x-x-x-x-x-x-x-x-x--1-1-1-1-1-1-1-1-1--2-2-2-2-2-2-2-2-2--1-1-1-1-1-1-1-1-1--|
|P.M____| |P.M__|  |P.M____| |P.M__|  |P.M____| |P.M__|  |P.M____| |P.M__|


----------------------------------------------------------------------------|
----------------------------------------------------------------------------|
----------------------------------------------------------------------------|
-2-2-2-2-2-2-2-2-2--3-3-3-3-3-3-3-3-3--4-4-4-4-4-4-4-4-4--6-6-6-6-6-6-6-6-6-|
-2-2-2-2-2-2-2-2-2--3-3-3-3-3-3-3-3-3--4-4-4-4-4-4-4-4-4--6-6-6-6-6-6-6-6-6-|
-x-x-x-x-x-x-x-x-x--1-1-1-1-1-1-1-1-1--2-2-2-2-2-2-2-2-2--4-4-4-4-4-4-4-4-4-|
|P.M____| |P.M__|  |P.M____| |P.M__|  |P.M____| |P.M__|


PUENTE INTRO-VERSO 1 (guitarra #1)
|-------------------------------------------------|
|---------------------------------------6-7-6-----|
|-6-4-3-------6-4-3-------6-4-3-------6-------6---|
|-------4-6-4-------4-6-4-------4-6-4-----------4-|
|-------------------------------------------------|
|-------------------------------------------------|

-------------------------------------------------|
---------------------------------------6-7-6-----|
-6-4-3-------6-4-3-------6-4-3-------6-------6-8-|
-------4-6-4-------4-6-4-------4-6-4-------------|
-------------------------------------------------|
-------------------------------------------------|

PUENTE INTRO-VERSO 1 (guitarra #2)
|-----------------------------------------------------------------------------------|
|-----------------------------------------------------------------------------------|
|---------------------6-6-6-6-6-6-6-6-6-6--4-4-4-4-4-4-4-4-4-4/8-8-8-8-8--6-6-6-6-6-|
|-4-4-4-4-4-4-4-4-4-4-6-6-6-6-6-6-6-6-6-6--4-4-4-4-4-4-4-4-4-4/8-8-8-8-8--6-6-6-6-6-|<--
son dos veces
|-4-4-4-4-4-4-4-4-4-4-4-4-4-4-4-4-4-4-4-4--2-2-2-2-2-2-2-2-2-2/6-6-6-6-6--4-4-4-4-4-|
|-2-2-2-2-2-2-2-2-2-2---------------------------------------------------------------|

|-------------|
|-------------|
|-4--4-3-6-4--|
|-4--4-3-6-4--|
|-2--2-1-4-2--|
|-------------|

<----------------->Las guitarras se callan y solo se queda el bajo y la
bateria----------->

Un Antes de venir a la fiesta del Betín
Yo me heche como ocho pistos
y ahora estoy aqui, yo me sirvo un bacardi
y ella estaba junto a mi

<---------aqui entran las guitarras de nuevo--------->

VERSO (las dos guitarras) ... no puedo mirar atras, ella cerca esta........
|-----------------------------------------------------------------------------------|
|-----------------------------------------------------------------------------------|
|---------------------6-6-6-6-6-6-6-6-6-6--4-4-4-4-4-4-4-4-4-4/8-8-8-8-8--6-6-6-6-6-|
|-4-4-4-4-4-4-4-4-4-4-6-6-6-6-6-6-6-6-6-6--4-4-4-4-4-4-4-4-4-4/8-8-8-8-8--6-6-6-6-6-|<--
son dos veces
|-4-4-4-4-4-4-4-4-4-4-4-4-4-4-4-4-4-4-4-4--2-2-2-2-2-2-2-2-2-2/6-6-6-6-6--4-4-4-4-4-|
|-2-2-2-2-2-2-2-2-2-2---------------------------------------------------------------|
   |P.M______________| |P.M______________|  |P.M______________| |P.M____|
|P.M_____|

|-----------|
|-----------|
|-4-4---6-6-|
|-4-4---6-6-|
|-2-2---4-4-|
|-----------|

CORO (lo hacen las dos guitarras) ....y le voy a llegar........
|---------------------------------------------------------------------------------------|
|---------------------------------------------------------------------------------------|
|----------------------4-4-4-4-4--6-6-6-6-6--4-4-4-4-4--8-8-8-8-8--4-4-4-4-4--6-6-6-6-6-|
|-4-4-4-4-4--8-8-8-8-8-4-4-4-4-4--6-6-6-6-6--4-4-4-4-4--8-8-8-8-8--4-4-4-4-4--6-6-6-6-6-|
|-4-4-4-4-4--8-8-8-8-8-2-2-2-2-2--4-4-4-4-4--2-2-2-2-2--6-6-6-6-6--2-2-2-2-2--4-4-4-4-4-|
|-2-2-2-2-2--6-6-6-6-6------------------------------------------------------------------|


|--------------------------------------------------------------------------|
|--------------------------------------------------------------------------|
|----------------------4-4-4-4-4--6-6-6-6-6--8-8-8-8-8-8-8-8-8-8-8-8-8-8-8-|
|-4-4-4-4-4--8-8-8-8-8-4-4-4-4-4--6-6-6-6-6--8-8-8-8-8-8-8-8-8-8-8-8-8-8-8-|
|-4-4-4-4-4--8-8-8-8-8-2-2-2-2-2--4-4-4-4-4--6-6-6-6-6-6-6-6-6-6-6-6-6-6-6-|
|-2-2-2-2-2--6-6-6-6-6-----------------------------------------------------|
                                             |PM__| |P.M__| |P.M__| |P.M__|

|------------|
|------------|
|---4-3-6-4--|
|---4-3-6-4--|
|---2-1-4-2--|
|------------|


PUENTE CORO-VERSO 2 (guitarra #1)
|-------------------------------------------------|
|---------------------------------------6-7-6-----|
|-6-4-3-------6-4-3-------6-4-3-------6-------6---|
|-------4-6-4-------4-6-4-------4-6-4-----------4-|
|-------------------------------------------------|
|-------------------------------------------------|

-------------------------------------------------|
---------------------------------------6-7-6-----|
-6-4-3-------6-4-3-------6-4-3-------6-------6-8-|
-------4-6-4-------4-6-4-------4-6-4-------------|
-------------------------------------------------|
-------------------------------------------------|


PUENTE CORO-VERSO 2 (guitarra #2)
|-----------------------------------------------------------------------------------|
|-----------------------------------------------------------------------------------|
|---------------------6-6-6-6-6-6-6-6-6-6--4-4-4-4-4-4-4-4-4-4/8-8-8-8-8--6-6-6-6-6-|
|-4-4-4-4-4-4-4-4-4-4-6-6-6-6-6-6-6-6-6-6--4-4-4-4-4-4-4-4-4-4/8-8-8-8-8--6-6-6-6-6-|<--
son dos veces
|-4-4-4-4-4-4-4-4-4-4-4-4-4-4-4-4-4-4-4-4--2-2-2-2-2-2-2-2-2-2/6-6-6-6-6--4-4-4-4-4-|
|-2-2-2-2-2-2-2-2-2-2---------------------------------------------------------------|

|-------------|
|-------------|
|-4--4-3-6-4--|
|-4--4-3-6-4--|
|-2--2-1-4-2--|
|-------------|

<----------------->Las guitarras se callan y solo se queda el bajo y la
bateria----------->

Yo me hice para atras esto iba a salir mal
No me salian las palabras
Chance con dos pistos mas yo me atreveria a hablar
pues deja a ir a servirme mas

<---------aqui entran las guitarras de nuevo--------->

VERSO (las dos guitarras) ... no me puedo ni parar pero ella ahi
esta........
|-----------------------------------------------------------------------------------|
|-----------------------------------------------------------------------------------|
|---------------------6-6-6-6-6-6-6-6-6-6--4-4-4-4-4-4-4-4-4-4/8-8-8-8-8--6-6-6-6-6-|
|-4-4-4-4-4-4-4-4-4-4-6-6-6-6-6-6-6-6-6-6--4-4-4-4-4-4-4-4-4-4/8-8-8-8-8--6-6-6-6-6-|<--
son dos veces
|-4-4-4-4-4-4-4-4-4-4-4-4-4-4-4-4-4-4-4-4--2-2-2-2-2-2-2-2-2-2/6-6-6-6-6--4-4-4-4-4-|
|-2-2-2-2-2-2-2-2-2-2---------------------------------------------------------------|
   |P.M______________| |P.M______________|  |P.M______________| |P.M____|
|P.M_____|

|-----------|
|-----------|
|-4-4---6-6-|
|-4-4---6-6-|
|-2-2---4-4-|
|-----------|

CORO (lo hacen las dos guitarras) ....y le voy a llegar........
|---------------------------------------------------------------------------------------|
|---------------------------------------------------------------------------------------|
|----------------------4-4-4-4-4--6-6-6-6-6--4-4-4-4-4--8-8-8-8-8--4-4-4-4-4--6-6-6-6-6-|
|-4-4-4-4-4--8-8-8-8-8-4-4-4-4-4--6-6-6-6-6--4-4-4-4-4--8-8-8-8-8--4-4-4-4-4--6-6-6-6-6-|
|-4-4-4-4-4--8-8-8-8-8-2-2-2-2-2--4-4-4-4-4--2-2-2-2-2--6-6-6-6-6--2-2-2-2-2--4-4-4-4-4-|
|-2-2-2-2-2--6-6-6-6-6------------------------------------------------------------------|


|--------------------------------------------------------------------------|
|--------------------------------------------------------------------------|
|----------------------4-4-4-4-4--6-6-6-6-6--8-8-8-8-8-8-8-8-8-8-8-8-8-8-8-|
|-4-4-4-4-4--8-8-8-8-8-4-4-4-4-4--6-6-6-6-6--8-8-8-8-8-8-8-8-8-8-8-8-8-8-8-|
|-4-4-4-4-4--8-8-8-8-8-2-2-2-2-2--4-4-4-4-4--6-6-6-6-6-6-6-6-6-6-6-6-6-6-6-|
|-2-2-2-2-2--6-6-6-6-6-----------------------------------------------------|
                                             |PM__| |P.M__| |P.M__| |P.M__|

|------------|
|------------|
|---4-3-6-4--|
|---4-3-6-4--|
|---2-1-4-2--|
|------------|

PUENTE A LOS COROS FINALES (las dos guitarras)
|-----------------------------|
|-----------------------------|
|-----------------------------|
|-----------------------------|<--- dos veces
|---------4-2-1---------4-2-1-|
|-2-2-2-2-------4-4-4-4-------|
|P.M________________________|


|---------------------|
|---------------------|
|---------------------|
|---------------------|<--- cuatro veces
|-----4-2-1-----4-2-1-|
|-2-2-------4-4-------|

|-------------------------------|
|-------------------------------|
|-------------------------------|
|-4-4-4-4-4-4-4-4-4-4-4-4-4-4-4-|
|-4-4-4-4-4-4-4-4-4-4-4-4-4-4-4-|
|-2-2-2-2-2-2-2-2-2-2-2-2-2-2-2-|
|P.M__________________________|


CORO (lo hacen las dos guitarras) ....y le voy a llegar........
|---------------------------------------------------------------------------------------|
|---------------------------------------------------------------------------------------|
|----------------------4-4-4-4-4--6-6-6-6-6--4-4-4-4-4--8-8-8-8-8--4-4-4-4-4--6-6-6-6-6-|
|-4-4-4-4-4--8-8-8-8-8-4-4-4-4-4--6-6-6-6-6--4-4-4-4-4--8-8-8-8-8--4-4-4-4-4--6-6-6-6-6-|<--
se hace tres veces
|-4-4-4-4-4--8-8-8-8-8-2-2-2-2-2--4-4-4-4-4--2-2-2-2-2--6-6-6-6-6--2-2-2-2-2--4-4-4-4-4-|
|-2-2-2-2-2--6-6-6-6-6------------------------------------------------------------------|

|--------------------------------------------------------------------------|
|--------------------------------------------------------------------------|
|----------------------4-4-4-4-4--6-6-6-6-6--8-8-8-8-8-8-8-8-8-8-8-8-8-8-8-|<--
esto es lo de mero al ultimo (solo 1 vez)
|-4-4-4-4-4--8-8-8-8-8-4-4-4-4-4--6-6-6-6-6--8-8-8-8-8-8-8-8-8-8-8-8-8-8-8-|
|-4-4-4-4-4--8-8-8-8-8-2-2-2-2-2--4-4-4-4-4--6-6-6-6-6-6-6-6-6-6-6-6-6-6-6-|
|-2-2-2-2-2--6-6-6-6-6-----------------------------------------------------|
                                             |PM__| |P.M__| |P.M__| |P.M__|

|------------|
|------------|
|---4-3-6-4--|
|---4-3-6-4--|
|---2-1-4-2--|
|------------|

Panda: "Ando pedo y ella esta aqui"

Un antes de venir a la fiesta de Betín
yo me heche como 8 pistos
y ahora estoy aqui, yo me sirvo un bacardi
y ella estaba junto a mi
No puedo mirar atras, ella cerca esta
y ya no puedo respirar
Lo bueno es que pedo estoy y valiente soy
hechame un pisto rapido que ya voy hacia ella

Y le voy a llegar
otro pisto necesito
y le voy a llegar
... a llegar

Yo me hice para atras esto iba a salir mal
No me salian las palabras
Chance con dos pistos mas yo me atreveria a hablar
pues deja ir aservirme mas
No me puedo ni parar, pero ella alli esta
no la puedo dejar pasar, esto ya no es natural
ya voy para aya, mi aliento a alcohol era
que ya voy hacia ella

Y le voy a llegar
otro pisto necesito
y le voy a llegar
... a llegar

Y le voy a llegar
otro pisto necesito
y le voy a llegar
... a llegar

Y le voy a llegar
otro pisto necesito
y le voy a llegar
... a llegar
            
Submit corrections

comments powered by Disqus
↑ Back to top | Panda Tabs for Ando Pedo Y Ella Esta Aqui. Lyrics for acoustic guitar and electric guitar. Tablatures and chords are parodies/interpretations of the original songs. You may use it for private study, scholarship, research or language learning purposes only