» » »

When You Walk In The Room () Tabs (ver.1)

Artists:  A B C D E F G H I J K L M N O P Q R S T U V W X Y Z # 

When You Walk In The Room () Tabs (ver.1)

Pam Tillis
Rating:
0/5 (0 votes)

Hard to play? Try these video lessons and learn fast.
                "E---|------------------------------------------------------------------
B---|--------------------------------12/13--11-------------------------
G---|--------8------------10/12--10-------------12--12--10h12--10--8---
D---|--8h10-----10--8--------------------------------------------------
A---|------------------6-----------------------------------------------
E---|------------------------------------------------------------------
                                                                        
E---|----------------------------------------------|---
B---|-------------12/13--11------------------------|---
G---|--10/12--10-------------12--12--10h12--10--8--|---
D---|----------------------------------------------|---
A---|----------------------------------------------|---
E---|----------------------------------------------|---
"            
Hard to play? Try these video lessons and learn fast. | Correct




comments powered by Disqus
↑ Back to top | Tablatures and chords are parodies/interpretations of the original songs. You may use it for private study, scholarship, research or language learning purposes only