» » »

When You Walk In The Room () Tabs (ver.2)

Artists:  A B C D E F G H I J K L M N O P Q R S T U V W X Y Z # 

When You Walk In The Room () Tabs (ver.2)

Pam Tillis
Rating:
0/5 (0 votes)

Hard to play? Try these video lessons and learn fast.
                "(2)
Capo I Fret



E-------2----2-3-2------------------------
B------3-----3-3-3---3--------3----3------
G-----2--------------2------2----2--------
D----0-------------------0----------------
A-----------------------------------------
E-----------------------------------------


E-------2----2-3-2------------------------
B------3-----3-3-3---3--------3----3------
G-----2--------------2------2----2--------
D----0-------------------0--------------0-
A-----------------------------------------
E------------------------------------b3---
"            
Hard to play? Try these video lessons and learn fast. | Correct




comments powered by Disqus
↑ Back to top | Tablatures and chords are parodies/interpretations of the original songs. You may use it for private study, scholarship, research or language learning purposes only