>
 >
Back To The Magic Of Childhood Exploring Life Part 2 2

Back To The Magic Of Childhood Exploring Life Part 2 2 Bass Tabs

Pagans Mind - Back To The Magic Of Childhood Exploring Life Part 2 2 chords, tabs, tablatures, lyrics

Guitar lessons | Add/correct | Request | Top 50 tabs Artists:  A B C D E F G H I J K L M N O P Q R S T U V W X Y Z 0-9

Back To The Magic Of Childhood Exploring Life Part 2 2 Bass Tabs – Pagans Mind

CD, Sheet music, Poster

Do you like Back To The Magic Of Childhood Exploring Life Part 2 2? Share with your friends now
Bass TabsBass Tabs v2Tabs

BACK TO THE MAGIC OF CHILDHOOD: PART 2, EXPLORING LIFE (Bassline)
As recorded by Pagan's Mind
(From the 2002 Album CELESTIAL ENTRANCE)

	

Music by Pagan's Mind
Arranged by Pagan's Mind

Gtr I (B E A D G B) - 'Bass Guitar'

 0:00
  Q=110
 3/8             7/8                     9/8
  Gtr I
  |-3-|
  S S S S  E.     S S S S e e S S S S E   S S S S e e S S S S S S S S S S
|-------------||------------------------|----------------------------------|
|-------------||o-----------------------|----------------------------------|
|-------------||------------------------|----------------------------------|
|-------------||----------5-4-------4-3-|---------3-2-------------0-2-3-5--|
|-x-x-x-9S12\-||o-0-2-3-0-----0-2-3-----|-0-2-3-0-----0-2-3-0-2-3----------|
|-------------||------------------------|----------------------------------|


 7/8                     6/8                   4/8
  S S S S e e S S S S E   S S S S e e S S S S   S S S S S S S S
|-----------------------|---------------------|------------------||
|-----------------------|---------------------|-----------------o||
|-----------------------|---------------------|---------------1--||
|---------5-4-------4-3-|---------3-2---------|-------0-0-0-3----||
|-0-2-3-0-----0-2-3-----|-0-2-3-0-----0-2-3-0-|-2-2-2-----------o||
|-----------------------|---------------------|------------------||


 7/8                     9/8
  S S S S e e S S S S E   S S S S e e S S S S S S S S S S
|-----------------------|---------------------------------|
|-----------------------|---------------------------------|
|-----------------------|---------------------------------|
|---------5-4-------4-3-|---------3-2-------------0-2-3-5-|
|-0-2-3-0-----0-2-3-----|-0-2-3-0-----0-2-3-0-2-3---------|
|-----------------------|---------------------------------|


                                                Q=176
 7/8                     6/8                   12/8
  S S S S e e S S S S E   S S S S e e S S S S   E E E E E E E E E E E E
|-----------------------|---------------------|-------------------------|
|-----------------------|---------------------|-------------------------|
|-----------------------|---------------------|-------------------1-1-1-|
|---------5-4-------4-3-|---------3-2---------|-------0-0-0-3-3-3-------|
|-0-2-3-0-----0-2-3-----|-0-2-3-0-----0-2-3-0-|-2-2-2-------------------|
|-----------------------|---------------------|-------------------------|


   0:29
   6/8                         8/8
    E E E E E E   E E E E E E   E E E E E E E E
||--------------|-------------|-----------------|
||o-------------|-------------|-----------------|
||--------------|-------------|-----------------|
||--------------|-------------|-----------------|
||o-------------|-------------|-----------------|
||----3-3---3-3-|---3-3---3-3-|---3-3---3-3---3-|


 6/8                         8/8
  E E E E E E   E E E E E E   E E E E E E E E
|-------------|-------------|-------------------|
|-------------|-------------|-------------------|
|-------------|-------------|-------------------|
|-------------|-------------|-------------------|
|-------------|-------------|-------------------|
|-3---3-3---3-|-3---3-3---3-|-3---3-3---3-3-----|


 6/8
  E E E E E E   E E E E E E   E E E E E E    Q  Q  Q      Q  Q Q
|-------------|-------------|-------------|-----------||----------|
|-------------|-------------|-------------|----------o||----------|
|-------------|-------------|-------------|-----------||----------|
|-------------|-------------|-------------|-----------||--3--3-3--|
|-------------|-------------|-------------|----------o||----------|
|-3-3---3-3---|-3-3---3-3---|-3-3---3-3---|--1--1--1--||----------|


 Keyboard Solo: 0:54
 3/8
  E E E   E E E   E E E   E E E   E E E   E E E   E E E   E E E
|-------|-------|-------|-------|-------|-------|-------|--------|
|-------|-------|-------|-------|-------|-------|-------|--------|
|-------|-------|-------|-------|-------|-------|-------|--------|
|-------|-------|-------|-------|-------|-------|-------|--------|
|-------|-------|-------|-------|-------|-------|-------|--------|
|---3-3-|---3-3-|---3-3-|---3-3-|---3-3-|---3-3-|---3-3-|---3-3--|


  +e  E E   E E E   E E E   E E E   E E E   E E E   E E E   E E E
|---------|-------|-------|-------|-------|-------|-------|-------|
|---------|-------|-------|-------|-------|-------|-------|-------|
|---------|-------|-------|-------|-------|-------|-------|-------|
|---------|-------|-------|-------|-------|-------|-------|-------|
|---------|-------|-------|-------|-------|-------|-------|-------|
|-(3)-2-2-|---2-2-|---2-2-|---2-2-|---2-2-|---2-2-|---2-2-|---2-2-|


  +e  E E   E E E   E E E   E E E   E E E   E E E   E E E   E E E
|---------|-------|-------|-------|-------|-------|-------|-------|
|---------|-------|-------|-------|-------|-------|-------|-------|
|---------|-------|-------|-------|-------|-------|-------|-------|
|---------|-------|-------|-------|-------|-------|-------|-------|
|---------|-------|-------|-------|-------|-------|-------|-------|
|-(2)-1-1-|---1-1-|---1-1-|---1-1-|---1-1-|---1-1-|---1-1-|---1-1-|


  +e  E E   E E E   E E E   E E E   E E E   E E E   E E E   E E E
|---------|-------|-------|-------|-------|-------|-------|-------|
|---------|-------|-------|-------|-------|-------|-------|-------|
|---------|-------|-------|-------|-------|-------|-------|-------|
|---------|-------|-------|-------|-------|-------|-------|-------|
|---------|-------|-------|-------|-------|-------|-------|-------|
|-(1)-0-0-|---0-0-|---0-0-|---0-0-|---0-0-|---0-0-|---0-0-|---0-0-|


 1:10
 24/8
  E E E E E E E E E E E E E E E E E E E E E E E E
|-------------------------------------------------|
|-------------------------------------------------|
|-------------------------------------------------|
|-------------------------------------------0-----|
|-0-3-0-2-0-3-0-2-0-3-0-2-0-3-0-2-0-3-0-3-0---3-2-|
|-------------------------------------------------|


  E E E E E E E E E E E E E E E E E E E E E E E E
|-------------------------------------------------|
|-------------------------------------------------|
|-------------------------------------------------|
|-------------------------------------------2-0---|
|-0-3-0-2-0-3-0-2-0-3-0-2-0-3-0-2-0-3-0-3-0-----3-|
|-------------------------------------------------|


  E E E E E E E E E E E E E E E E E E E E E E E E
|-------------------------------------------------|
|-------------------------------------------------|
|-------------------------------------------------|
|-------------------------------------------3-0---|
|-0-3-0-2-0-3-0-2-0-3-0-2-0-3-0-2-0-3-0-3-0-----3-|
|-------------------------------------------------|


  E E E E E E E E E E E E E E E E E E E E E E E E
|-------------------------------------------------|
|-------------------------------------------------|
|-------------------------------------------------|
|-------------------------------------------4-2---|
|-0-3-0-2-0-3-0-2-0-3-0-2-0-3-0-2-0-3-0-3-0-----3-|
|-------------------------------------------------|


 17/8
  E E E E E E E E E E E E E E E E E
|-----------------------------------|
|-----------------------------------|
|-----------------------------------|
|-------------0-----2-0---3-0---4-2-|
|-0-3-0-2-0-3---3-2-----3-----3-----|
|-----------------------------------|


   1:30
    Q=169
   5/8                                 4/8
    E E E E E   E E E E E   E E E E E   E E E E
||------------|-----------|-----------|---------|
||o-----------|-----------|-------4-4-|---------|
||------------|-------3-3-|-5-5-5-----|-----3-3-|
||--------2-2-|-4-4-4-----|-----------|-4-4-----|
||o-3-3-3-----|-----------|-----------|---------|
||------------|-----------|-----------|---------|


 5/8                                 4/8
  E E E E E   E E E E E   E E E E E   E E E E
|-----------|-----------|-----------|----------||
|-----------|-----------|-------4-4-|-----6---o||
|-----------|-------3-3-|-5-5-5-----|---6---6--||
|-------2-2-|-4-4-4-----|-----------|-4--------||
|-3-3-3-----|-----------|-----------|---------o||
|-----------|-----------|-----------|----------||


  Q=155
 6/8                                 2/8
  q  E q  E   q  E q  E   q  E q  E   E E
|-----------|-----------|-----------|-----|
|-----------|-----------|-----------|-----|
|-----------|-----------|-----------|-----|
|-----------|-----------|-----------|---4-|
|-5--5-5--5-|-2--2-2--2-|-5--5-5--5-|-2---|
|-----------|-----------|-----------|-----|


 6/8                                       2/8
  E E E E E E   E E E E E E   E E E E E E   E E
|-------------|-------------|-------------|-----|
|-------------|-------------|-------------|-----|
|-------------|-------------|-------------|-----|
|-------------|-------------|-------------|---3-|
|---5-5---5-5-|---2-2---2-2-|---5-5---5-5-|-3---|
|-------------|-------------|-------------|-----|


    Q=163
   5/8                                 4/8
    E E E E E   E E E E E   E E E E E   E E E E
||------------|-----------|-----------|---------|
||o-----------|-----------|-------4-4-|---------|
||------------|-------3-3-|-5-5-5-----|-----3-3-|
||--------2-2-|-4-4-4-----|-----------|-4-4-----|
||o-3-3-3-----|-----------|-----------|---------|
||------------|-----------|-----------|---------|


 5/8                                 4/8
  E E E E E   E E E E E   E E E E E   E E E E
|-----------|-----------|-----------|----------||
|-----------|-----------|-------4-4-|-----6---o||
|-----------|-------3-3-|-5-5-5-----|---6---6--||
|-------2-2-|-4-4-4-----|-----------|-4--------||
|-3-3-3-----|-----------|-----------|---------o||
|-----------|-----------|-----------|----------||


 2:05
  Q=157
 5/8                                 4/8
  E E e E E   E E e E E   E E e E E   Q  Q
|-----------|-----------|-----------|-------|
|-----------|-----------|-----------|-------|
|-----------|-----------|-----------|-------|
|-2---2---2-|-----------|-----------|-------|
|-----------|-2---2---2-|-3---3---3-|-1--1--|
|-----------|-----------|-----------|-------|


 5/8                                 2/8
  E E e E E   E E e E E   E E e E E   E E
|-----------|-----------|-----------|-----|
|-----------|-----------|-----------|-----|
|-----------|-----------|-----------|-1-1-|
|-2---2---2-|-----------|-3---3---3-|-----|
|-----------|-2---2---2-|-----------|-----|
|-----------|-----------|-----------|-----|


 5/8                                 4/8
  E E e E E   E E e E E   E E e E E   Q  Q
|-----------|-----------|-----------|-------|
|-----------|-----------|-----------|-------|
|-----------|-----------|-----------|-------|
|-2---2---2-|-----------|-----------|-------|
|-----------|-2---2---2-|-3---3---3-|-1--1--|
|-----------|-----------|-----------|-------|


                                      Q=156
 5/8                                 3/8
  E E e E E   E E e E E   E E e E E   E E E
|-----------|-----------|-----------|-------|
|-----------|-----------|-----------|-------|
|-----------|-----------|-----------|---1---|
|-2---2---2-|-----------|-3---3---3-|-------|
|-----------|-2---2---2-|-----------|-------|
|-----------|-----------|-----------|-------|


 2:20
 5/8                                 4/8
  E E E E E   E E E E E   E E E E E   E E E E
|-----------|-----------|-----------|---------|
|-----------|-----------|-----------|---------|
|-----------|-----------|-----------|---------|
|-2---------|-----------|-----------|---------|
|-----------|-2---------|-3---------|---1-----|
|-----------|-----------|-----------|---------|


 5/8                                 3/8
  E E E E E   E E E E E   E E E E E   E E E
|-----------|-----------|-----------|-------|
|-----------|-----------|-----------|-------|
|-----------|-----------|-----------|---1---|
|-2---------|-----------|-3---------|-------|
|-----------|-2---------|-----------|-------|
|-----------|-----------|-----------|-------|


 5/8                                 4/8
  E E E E E   E E E E E   E E E E E   E E E E
|-----------|-----------|-----------|---------|
|-----------|-----------|-----------|---------|
|-----------|-----------|-----------|---------|
|-2---------|-----------|-----------|---------|
|-----------|-2---------|-3---------|---1-----|
|-----------|-----------|-----------|---------|


 5/8                                 2/8
  E E E E E   E E E E E   E E E E E   E E
|-----------|-----------|-----------|-----|
|-----------|-----------|-----------|-----|
|-----------|-----------|-----------|---1-|
|-2---------|-----------|-3---------|-----|
|-----------|-2---------|-----------|-----|
|-----------|-----------|-----------|-----|


 5/8                                 4/8
  E E E E E   E E E E E   E E E E E   S S S S S S S S
|-----------|-----------|-----------|-----------------|
|-----------|-----------|-----------|-----------------|
|-----------|-----------|-----------|-----------------|
|-2-2-2-2-2-|-----------|-----------|-----------------|
|-----------|-2-2-2-2-2-|-3-3-3-3-3-|-1-1-1-1-1-1-1-1-|
|-----------|-----------|-----------|-----------------|


 5/8                                 2/8
  E E E E E   E E E E E   E E E E E   E E
|-----------|-----------|-----------|-----|
|-----------|-----------|-----------|-----|
|-----------|-----------|-----------|-1-1-|
|-2-2-2-2-2-|-----------|-3-3-3-3-3-|-----|
|-----------|-2-2-2-2-2-|-----------|-----|
|-----------|-----------|-----------|-----|


 5/8                                 8/8
  E E E E E   E E E E E   E E E E E   S S S S S S S S S S S S S S S S
|-----------|-----------|-----------|---------------------------------|
|-----------|-----------|-----------|---------------------------------|
|-----------|-----------|-----------|---------------------------------|
|-2-2-2-2-2-|-----------|-----------|---------------------------------|
|-----------|-2-2-2-2-2-|-3-3-3-3-3-|-1-1-1-1-1-1-1-1-1-1-1-1-1-1-1-1-|
|-----------|-----------|-----------|---------------------------------|


 5/8
  E E E E E   E E E E E   E E E E E
|-----------|-----------|-----------|
|-----------|-----------|-----------|
|-----------|-----------|-----------|
|-2-2-2-2-2-|-----------|-3-3-3-3-3-|
|-----------|-2-2-2-2-2-|-----------|
|-----------|-----------|-----------|


 2:47
  Q=150
 4/4
  E E Q  Q  Q    E E Q  Q  Q    E E Q  Q  Q    E E Q  Q  Q
|--------------|--------------|--------------|--------------|
|--------------|--------------|--------------|--------------|
|-1-1----------|--------------|--------------|--------------|
|--------------|-3-3----------|-0-0----------|--------------|
|--------------|--------------|--------------|-2-2----------|
|--------------|--------------|--------------|--------------|


 2:53
  Q=130
 7/8                                             8/8
  E E E E E E E   E E E E E E E   E E E E E E E   E E E E E E E E
|---------------|---------------|---------------|-----------------|
|---------------|---------------|---------------|-----------------|
|-----8-5-7---5-|-----5-2-4---2-|---------------|-----------------|
|-6-6-------8---|-3-3-------5---|-----7-4-6---4-|-------4-1-3---1-|
|---------------|---------------|-5-5-------7---|-2-2-2-------4---|
|---------------|---------------|---------------|-----------------|


 7/8                                            8/8
  E E E E E E E   E E E E E Q    E E E E E E E   E E E E E E E E
|---------------|--------------|---------------|-----------------|
|---------------|--------------|---------------|-------6-3-5---3-|
|---------------|--------------|---------------|-4-4-4-------6---|
|---------------|--------------|---------------|-----------------|
|-5-5-----------|-5-5-------0--|-2-2-----------|-----------------|
|---------------|--------------|---------------|-----------------|


  Q=132
 7/8                                            8/8
  E E E E E E E   E E E E E Q    E E E E E E E   E E E  E  E E  E  E
|---------------|--------------|---------------|---------------------|
|---------------|--------------|---------------|-------10----8-------|
|---------------|--------------|---------------|----------11---10-11-|
|---------------|--------------|---------------|-9-9-9---------------|
|-5-5-----------|-5-5-------0--|-2-2-----------|---------------------|
|---------------|--------------|---------------|---------------------|


 7/8
  E E E E E E E   E E E E E E E   E E E E E E E   E E E E Q  +E
|---------------|---------------|---------------|----------------|
|---------------|---------------|---------------|----------------|
|---------------|---------------|---------------|----------------|
|---------------|---------7-6---|-----9---7-6---|---------2--(2)-|
|-5-5---5-4-5-7-|-5-5---5-----5-|-7-7---7-----9-|-7-7---2--------|
|---------------|---------------|---------------|----------------|


 7/8
  E E E E E E E   E E E E E E E   E E E E E E E   E Q  +Q   +Q
|---------------|---------------|---------------|----------------|
|---------------|---------------|---------------|----------------|
|---------------|---------------|---------------|----------------|
|---------------|---------7-6---|-2-2-----2-2-2-|----------------|
|-5-5---5-4-5-7-|-5-5---5-----5-|-------2-------|----------------|
|---------------|---------------|---------------|-0-0--(0)--(0)--|


 3:26
                               Q=129
 7/8
  Q  Q  E. S E   Q  Q  E E E   E E E E E E E   E E E E S S S S S S
|--------------|-------------|---------------|----------------------|
|--------------|-------------|---------------|----------------------|
|--------------|-------5-4---|-----7---5-4---|-----7---5-4-------4--|
|-3--3--2--3-5-|-3--3------3-|-5-5---5-----7-|-5-5---5-----7-5-7----|
|--------------|-------------|---------------|----------------------|
|--------------|-------------|---------------|----------------------|


 7/8
  Q  Q  E. S E   Q  E E E E E
|--------------|--------------|
|--------------|--------0-----|
|--------------|----3-----3-2-|
|-1--1--0--1-3-|-1----1-------|
|--------------|--------------|
|--------------|--------------|


                                    Q=132
 7/8             8/8               7/8             8/8
  E E E E E E E   E E E E E E E E   E E E E E E E   E E E E E E E E
|---------------|-----------------|---------------|-----------------|
|---------------|-----------------|---------------|-----------------|
|---------------|-----------------|---------------|-------5---4-----|
|-----5-2-4---2-|-------5-2-4---2-|-----5-2-4---2-|---------7---5-7-|
|-3-3-------5---|-3-3-3-------5---|-3-3-------5---|-3-3-3-----------|
|---------------|-----------------|---------------|-----------------|


 7/8             8/8               7/8
  E E E E E E E   E E E E E E E E   E E E E E E E
|---------------|-----------------|---------------|
|---------------|-----------------|---------------|
|---------------|-----------------|---------------|
|-----5-2-4---2-|-------5-2-4---2-|-----5-2-4---2-|
|-3-3-------5---|-3-3-3-------5---|-3-3-------5---|
|---------------|-----------------|---------------|


 6/8
  S S S S S S S S S S S S
|-------------------------|
|-------------------------|
|-----------2-------------|
|-----2-4-5---5-4-2-0-2-4-|
|-3-5---------------------|
|-------------------------|


 Guitar Solo 3:49
  Q=126
 7/4
  E e Q  Q.   q  q  Q.     Q.   E e Q  q  q  Q.
|------------------------|-------------------------|
|------------------------|-------------------------|
|------------------------|-------------------------|
|-5-5---------5--5-------|-5------5----5--5--------|
|------------------------|------5------------------|
|------------------------|-------------------------|


 7/4
  E e Q  Q.   q  q  Q.     Q.   E  E E E H    +Q.
|------------------------|---------------------------|
|------------------------|---------------------------|
|------------------------|---------------------------|
|-5-5---------5--5-------|-5------/5-3---------------|
|------------------------|------5------5-------------|
|------------------------|---------------3----(3)----|


  Q=125
  E e Q  Q.   q  q  Q.     Q.   E e Q  Q   Q  Q  E
|------------------------|-------------------------|
|------------------------|-------------------------|
|------------------------|-------------------------|
|-5-5---------5--5-------|-5------5----5------3----|
|------------------------|------5---------/5-----5-|
|------------------------|-------------------------|


  Q=123
  E e Q  Q.   q  q  Q  E   Q.   E e Q  q  q  q  E
|------------------------|------------------------|
|------------------------|------------------------|
|------------------------|--------5---------------|
|-5-5---------5--5-----5-|------5---------------3-|
|-------------------5----|-3-----------3--6--5----|
|------------------------|------------------------|


  E e Q  Q.   q  q  Q.     Q.   E e Q  q  q  q  E
|------------------------|------------------------|
|------------------------|------------------------|
|------------------------|------------------------|
|-5-5---------5--5-------|-5------5----5-----3----|
|------------------------|------5---------5-----5-|
|------------------------|------------------------|


  E e Q  Q.   q  q  q  E   Q.   E e Q  q  q  q  E
|------------------------|------------------------|
|------------------------|------------------------|
|------------------------|--------5---------------|
|-5-5---------5-----5----|------5---------------3-|
|----------------5-----5-|-3-----------3--6--5----|
|------------------------|------------------------|


  E Q  +Q   E E q  q  Q  E   H    +E  E E E E E E E E E
|--------------------------|----------------------------|
|--------------------------|----------------------------|
|--------------------------|--------------3---2---0-----|
|-5-5--(5)--3-4-5--5-----3-|-5----(5)-3-5---5---3---3-0-|
|---------------------5----|----------------------------|
|--------------------------|----------------------------|


  E Q  +Q   E E q  q  Q  E   Q.   E e Q  q  q  q  E
|--------------------------|------------------------|
|--------------------------|------------------------|
|--------------------------|--------5---------------|
|-----------0-3-5--5-----5-|------5---------------3-|
|---------------------5----|-3-----------3--6--5----|
|-3-3--(3)-----------------|------------------------|


  E E E E E E E Q  E E E E E   q  q  E E E E E E E E E E
|----------------------------|---------------------------|
|----------------------------|---------------------------|
|----------------------------|-------------3---2---0-----|
|-5-5-5-5-3-4-5----3-5-0-3-0-|-5--5--3-4-5---5---3---3-0-|
|----------------------------|---------------------------|
|---------------3------------|---------------------------|


  Q  Q  E E E q  q  Q  E   Q  Q  Q  E q  q  q  E
|------------------------|-----------------------|
|------------------------|-----------------------|
|------------------------|-------5---------------|
|----5--0-3-0-5--5-----5-|----5-----5----------3-|
|-------------------5----|-3----------3--6--5----|
|-3----------------------|-----------------------|


 4:57
  E E E E E E E E E E E E E E   E E E E E E E E E E E E E E
|-----------------------------|-----------------------------|
|-----------------------------|-----------------------------|
|-----------------------------|-----------------------------|
|-5-5-5-5-3-3-4-5-5-5-5-0-3-0-|-5-5-5-5-3-3-4-5-5-5-5-1-3-1-|
|-----------------------------|-----------------------------|
|-----------------------------|-----------------------------|


  E E E E E E E E E E E E E E   E E E E E E E E E E E E E E
|-----------------------------|-----------------------------|
|-----------------------------|-----------------------------|
|-----------------------------|-----------------------------|
|-5-5-5-5-3-3-4-5-5-5-5-0-5-0-|-----------------------------|
|-----------------------------|-3-3-3-3-0-0-1-3-3-3-3-5-5-5-|
|-----------------------------|-----------------------------|


  Q=127
  E E E E E E E E E E E E E E   E E E E E E E E E E E E E E
|-----------------------------|-----------------------------|
|-----------------------------|-----------------------------|
|-----------------------------|-----------------------------|
|-----------------------------|-----------------------------|
|-----------------------------|-----------------------------|
|-3-3-3-3-1-1-2-3-3-3-3-1-2-2-|-3-3-3-3-1-1-2-3-3-3-3-1-2-2-|


  E E E E E E E E E E E E E E   E E E E E E E E E E E E E E
|-----------------------------|-----------------------------|
|-----------------------------|-----------------------------|
|-----------------------------|-----------------------------|
|-----------------------------|-----------------------------|
|-----------------------------|-3-3-3-3-0-0-1-3-3-3-3-3-3-3-|
|-3-3-3-3-1-1-2-3-3-3-3-1-2-2-|-----------------------------|


 Guitars 5:24
  Q=120            Q=117
 6/4
  Wx2              W        H      Q  Q  Q  Q  E E  E  E
|----------------|---------------|------------------------|
|----------------|---------------|------------------------|
|----------------|---------------|-------------7-7-12-14--|
|----------------|---------------|------------------------|
|----------------|---------------|------------------------|
|----------------|---------------|------------------------|


 Bass Solo 5:36
  Q=119
 6/4
   E  E  Q.    E  Q   H       +Q    E  E  E  E  E  E  Q.    E
|--------------------------|----------------------------------|
|-11-----------------------|----------------------------------|
|----14-12----14-11--------|----------------12----------------|
|--------------------12----|-(12)--12-14-15----14-12-10----12-|
|--------------------------|----------------------------------|
|--------------------------|----------------------------------|


   Q.    Q   E  E  E  E  Q   E    Q.    E  E  E E  E E E E E
|------------------------------|-----------------------------|
|------------------------------|-----------------------------|
|-----------------10-15--------|-------12-11----9----7---5---|
|-13----15--13-12-----------10-|-12----------12---10---9---7-|
|-----------------------13-----|-----------------------------|
|------------------------------|-----------------------------|


 5:50
  Q=122
  Q.   Q  E q  Q.   E   Q.   Q  E q  H
|---------------------|-------------------|
|---------------------|-------------------|
|---------------------|-------------------|
|-5----5----5--5------|-5----5----5--5----|
|---------5---------5-|---------5---------|
|---------------------|-------------------|


  Q=123
  Q.   Q  E q  Q.   E   Q.   E E E E E E E E E
|---------------------|------------------------|
|---------------------|------------------------|
|---------------------|------------------------|
|-5----5--------------|------5-4---2---0-------|
|---------5-1--1----3-|-5--------5---3---2-3-0-|
|---------------------|------------------------|


  Q=122
  Q.   Q  E q  Q.   E   Q.   Q  E E E H
|---------------------|--------------------|
|---------------------|--------------------|
|---------------------|--------------------|
|-5----5----5--5------|-5----5----5--------|
|---------5---------5-|---------5---5------|
|---------------------|---------------3----|


  Q.   Q.   E E Q.   E     Q.   Q  E q  q  q
|----------------------||----------------------||
|----------------------||o--------------------o||
|----------------------||----------------------||
|-5----7----8----------||----------x-3--3--3---||
|-------------8------3-||o-5----5-------------o||
|---------------6------||----------------------||


 6:15
  Q.   Q  E q  q  Q    Q.   Q  E q  q  Q
|--------------------|--------------------|
|--------------------|--------------------|
|--------------------|--------------------|
|------5----------5--|------5----------5--|
|--------------------|--------------------|
|-3-------1S3--3-----|-3-------1S3--3-----|


  Q.   Q.   Q  Q.   E   Q.   Q  E E E E E E E
|---------------------|-----------------------|
|---------------------|-----------------------|
|---------------------|-----------------------|
|---------------------|---------5-4---2---0---|
|-------------------3-|-5----5------5---3---0-|
|-3----5----6--6------|-----------------------|


  Q.   Q   E E E E E E E   Q.   Q  E Q  Q.   E
|------------------------|---------------------|
|------------------------|---------------------|
|---------/4-------------|---------------------|
|------------5p4-0-5p4-0-|------5--------------|
|------5-----------------|---------------------|
|-3----------------------|-3-------1-3--3----1-|


                          Q=124
  Q  E Q  E Q  Q.   E     Q.   Q  E q  q  q   3x
|---------------------||----------------------||
|---------------------||o--------------------o||
|---------------------||----------------------||
|---------------------||----------x-3--3--3---||
|-------------------3-||o-5----5-------------o||
|-3--3-5--5-6--6------||----------------------||


  E E E E E E E E E E E E
|----------------------------|
|----------------------------|
|----------------------------|
|-------------3-3-3-3-3-3----|
|-5-5-5-5-5-5----------------|
|----------------------------|


   Intro Variation 6:48
    Q=126
   7/4                        15/8
    E E E E q  Q  E E E E Q    E E E E q  Q  E E E E S S S S S S  3x
||---------------------------|------------------------------------||
||o--------------------------|-----------------------------------o||
||---------------------------|------------------------------------||
||----------5--4--------4-3--|---------3--2--------------0-2-3-5--||
||o-0-2-3-0-------0-2-3------|-0-2-3-0-------0-2-3-0-2-3---------o||
||---------------------------|------------------------------------||


  Q=124
 7/4                           15/8
  E E E E E E E E E E E E E E   E E E E E E E E E E E E S S S S S S
|-----------------------------|--------------------------------------|
|-----------------------------|--------------------------------------|
|-----------------------------|--------------------------------------|
|---------5-5-4-4-------4-3-3-|---------3-3-2-2-------------0-2-3-5--|
|-0-2-3-0---------0-2-3-------|-0-2-3-0---------0-2-3-0-2-3----------|
|-----------------------------|--------------------------------------|


                       7:17
                    Q=116
   3/8                 6/16
    S S S S S S  3x     S S S S S S
||---------------||-||--------------|
||o-------------o||-||o-------------|
||---------------||-||--------------|
||--------2-3-5--||-||--------0-2-3-|
||o-2-3-5-------o||-||o-0-2-3-------|
||---------------||-||--------------|


  S S S S S S   S S S S S S   S S S S S S  4x
|-------------|-------------|--------------||
|-------------|-------------|-------------o||
|-------------|-------------|--------------||
|-------0-2-3-|-------0-2-3-|--------------||
|-0-2-3-------|-0-2-3-------|-0-3-0-2-0-3-o||
|-------------|-------------|--------------||


 7:30
  Q=152
 4/4
  S S S S S S S S S S S S S S S S   S S S S S S S S S S S S S S S S
|---------------------------------|----------------------------------|
|---------------------------------|----------------------------------|
|---------------------------------|----------------------------------|
|---------------------------------|----------------------------------|
|-0-0-0-0-0-0-0-0-0-0-0-0-0-0-0-0-|-0-0-0-0-0-0-0-0-0-0-0-0-0-0-0-0--|
|---------------------------------|----------------------------------|


  S S S S S S S S S S S S S S S S   S S S S S S S S S S S S S S S S
|---------------------------------|---------------------------------|
|---------------------------------|---------------------------------|
|---------------------------------|---------------------------------|
|---------------------------------|---------------------------------|
|-0-0-0-0-0-0-0-0-0-0-0-0-0-0-0-0-|-0-0-0-0-0-0-0-0-0-0-0-0-0-0-0-0-|
|---------------------------------|---------------------------------|


  +S  S E E S S +S  S E E S S   +S  S E E S S +S  S E E S S
|-----------------------------|-----------------------------|
|-----------------------------|-----------------------------|
|-----------------------------|-----------------------------|
|-----------------------------|-----------------------------|
|-(0)-0-0-0-0-0-(0)-0-0-0-0-0-|-(0)-0-0-0-0-0-(0)-0-0-0-0-0-|
|-----------------------------|-----------------------------|


  +S  S E E S S +S  S E E S S   +S  S E E S S +S  S E E S S
|-----------------------------|-----------------------------|
|-----------------------------|-----------------------------|
|-----------------------------|-----------------------------|
|-----------------------------|-----------------------------|
|-(0)-0-0-0-0-0-(0)-0-0-0-0-0-|-(0)-0-0-0-0-0-(0)-0-0-0-0-0-|
|-----------------------------|-----------------------------|


    Q=155
     Q  E S S +S  S E E S S   +S  S E E S S +S  S E E S S
||--------------------------|-----------------------------|
||o-------------------------|-----------------------------|
||--------------------------|-----------------------------|
||--/5----------------------|-----------------------------|
||o-----0-0-0-(0)-0-0-0-0-0-|-(0)-0-0-0-0-0-(0)-0-0-0-0-0-|
||--------------------------|-----------------------------|


   Q  E S S +S  S E E S S     Q  E S S +S  S E E S S
|-------------------------|---------------------------||
|-------------------------|--------------------------o||
|-------------------------|---------------------------||
|-/7----------------------|-/10-----------------------||
|-----0-0-0-(0)-0-0-0-0-0-|------0-0-0-(0)-0-0-0-0-0-o||
|-------------------------|---------------------------||


 7:54
  Q.   Q   Q.     W          Q.   Q   Q.     W
|---------------|----------|---------------|------|
|---------------|----------|---------------|------|
|---------------|----------|---------------|------|
|-2----1\-------|----------|---------------|------|
|---------------|----------|-5----3\-------|------|
|---------------|----------|---------------|------|


  Q.   E H      W          Q.   Q   Q.     W
|-------------|----------|---------------|------|
|-------------|----------|---------------|------|
|-------------|----------|---------------|------|
|-2----1------|----------|-5----7\-------|------|
|-------------|----------|---------------|------|
|-------------|----------|---------------|------|


 8:08
  Q=144
  E. E. E E. E. E   E. E. E E. E. E   E. E. E E. E. E   E. E. E E. E. E
|-----------------|-----------------|-----------------|-----------------|
|-----------------|-----------------|-----------------|-----------------|
|-----------------|-----------------|-----------------|-----------------|
|-----------------|-----------------|-----------------|-----------------|
|-----------------|-----------------|-----------------|---------------2-|
|-3--3--3-3--3--3-|-3--3--3-3--3--3-|-3--3--3-3--3--3-|-3--3--3-3--3----|


  E. E. E E. E. E   E. E. E E. E. E   E. E. E E. E. E   E. E. E E E Q
|-----------------|-----------------|-----------------|----------------|
|-----------------|-----------------|-----------------|----------------|
|-----------------|-----------------|-----------------|----------------|
|-----------------|-----------------|-----------------|---------2-2-0--|
|-3--3--3-3--3--3-|-3--3--3-3--3--3-|-3--3--3-3--3--3-|-3--3--3--------|
|-----------------|-----------------|-----------------|----------------|


                                      Q=146
  E E E E E E E E   E E E E E E E E   E E E E E E E E   E E E E E E E E
|-----------------|-----------------|-----------------|------------------|
|-----------------|-----------------|-----------------|------------------|
|-----------------|-----------------|-----------------|------------------|
|-----------------|-----------------|-----------------|------------------|
|-----------------|-----------------|-----------------|------------------|
|-3-3-3-3-3-3-3-3-|-3-3-3-3-3-3-3-3-|-3-3-3-3-3-3-3-3-|-3-3-3-3-3-3-1-1--|


  E E E E E E E E   E E E E E E E E   E E E E E E E E   E E E E E E E E
|-----------------|-----------------|-----------------|------------------|
|-----------------|-----------------|-----------------|------------------|
|-----------------|-----------------|-----------------|------------------|
|-----------------|-----------------|-----------------|------------------|
|-3-3-3-3-3-3-3-3-|-3-3-3-3-3-3-3-3-|-3-3-3-3-3-3-3-3-|-3-3-3-3-3-3-3-3--|
|-----------------|-----------------|-----------------|------------------|


  Q=144                                 Q=146
  E e. e. e. e. E   +E  E. E. e. E. E   E e. e. e. e. E   +E  E. E. e. E. E
|-----------------|-------------------|-----------------|-------------------|
|-----------------|-------------------|-----------------|-------------------|
|-----------------|-------------------|-----------------|-------------------|
|---2--1----------|-------------------|---2--1----------|-------------------|
|---------4--2----|-----1--4--------1-|---------4--2----|-----1--4--------1-|
|---------------4-|-(4)-------2--4----|---------------4-|-(4)-------2--4----|


  Q=132
  E. E. E. E. E E   E. E. E. E. E E   E. E. E. E. E E   E. E. E. E. E E
|-----------------|-----------------|-----------------|-----------------|
|-----------------|-----------------|-----------------|-----------------|
|-----------------|-----------------|-----------------|-----------------|
|-----------------|-2--2--2--2--2-2-|-----------------|-4--4--4--4--4-4-|
|-----------------|-----------------|-----------------|-----------------|
|-0--0--0--0--0-0-|-----------------|-0--0--0--0--0-0-|-----------------|


   Ending 8:48
    Q=148
    S S S S S S S S S S S S S S S S   S S S S S S S S S S S S S S S S
||----------------------------------|---------------------------------|
||o---------------------------------|---------------------------------|
||----------------------------------|---------------------------------|
||--5-5-5-5-5-5-5-5-5-5-5-5-5-5-5-5-|-5-5-5-5-5-5-5-5-3S5-5-5-5-5-5-5-|
||o---------------------------------|---------------------------------|
||----------------------------------|---------------------------------|


  S S S S S S S S S S S S S S S S   S S S S S S S S S S S S S S S S
|---------------------------------|----------------------------------||
|---------------------------------|---------------------------------o||
|---------------------------------|----------------------------------||
|-5-5-5-5-5-5-5-5-5-5-5-5-5-5-5-5-|-5-5-5-5-5-5-5-5-3S1-1-1-1-1-1-1--||
|---------------------------------|---------------------------------o||
|---------------------------------|----------------------------------||


  E e. e. e. e. E   S e. e. e. E +Q     E e. e. e. e. E   S e. e. e. E +Q
|-----------------|-------------------|-----------------|--------------------|
|-----------------|-------------------|-----------------|--------------------|
|-----------------|-------------------|-----------------|--------------------|
|-----------------|-------------------|-----------------|------------1-(1)---|
|------------1----|-------------------|------------1----|--------------------|
|---3--1--3-----3-|---1--3--1--3-(3)--|---3--1--3-----3-|---1--3--1----------|


  E e. e. e. e. E   S e. e. e. E +Q     E e. e. e. e. E   S e. e. e. e Q
|-----------------|-------------------|-----------------|------------------*|
|-----------------|-------------------|-----------------|------------------*|
|------------3----|-------------------|------------3----|------------------*|
|---5--3--5-----5-|---3--5--3--5-(5)--|---5--3--5-----5-|---3--5--3--5-----*|
|-----------------|-------------------|-----------------|------------------*|
|-----------------|-------------------|-----------------|------------------*|



Duration Legend
---------------
W - whole; H - half; Q - quarter; E - 8th; S - 16th; T - 32nd; X - 64th; a - acciaccatura
+ - note tied to previous; . - note dotted; .. - note double dotted
Uncapitalized letters represent notes that are staccato (1/2 duration)
Irregular groupings are notated above the duration line
Duration letters will always appear directly above the note/fret number it represents the
duration for.  Duration letters with no fret number below them represent rests.  Multi-
bar rests are notated in the form Wxn, where n is the number of bars to rest for.  Low
melody durations appear below the staff

Tablature Legend
----------------
 h   - hammer-on
 p   - pull-off
 b   - bend
 pb  - pre-bend
 r   - bend release (if no number after the r, then release immediately)
 /\  - slide into or out of (from/to "nowhere")
 s   - legato slide
 S   - shift slide
 - natural harmonic
[n]  - artificial harmonic
n(n) - tapped harmonic
 ~   - vibrato
 tr  - trill
 T   - tap
 TP  - trem. picking
 PM  - palm muting
\n/  - tremolo bar dip; n = amount to dip
 \n  - tremolo bar down
 n/  - tremolo bar up
/n\  - tremolo bar inverted dip
 =   - hold bend; also acts as connecting device for hammers/pulls
 <> - volume swell (louder/softer)
 x   - on rhythm slash represents muted slash
 o   - on rhythm slash represents single note slash

Misc Legend
-----------
 |  - bar
||  - double bar
||o - repeat start
o|| - repeat end
*|  - double bar (ending)
 :  - bar (freetime)
 $  - Segno
 &  - Coda
Tempo markers -  = BPM(8/16=s8/s16), where s8 = swing 8ths, s16 = swing 16ths





Comments


Popular Pagans Mind tabs & chords
Aegan Shores Bass Tabs
Back To The Magic Of Childhood Exploring Life Part 2 Bass Tabs
Dimensions Of Fire Bass Tabs
Through Osiris' Eyes Bass Tabs
Aegan Shores Tabs
Approaching Tabs
Back To The Magic Of Childhood Exploring Life Part 2 Tabs
Search For Life Intro Tabs
Taken Tabs
United Alliance Tabs


Song lyrics



↑ Back to top | Tablatures and chords are parodies/interpretations of the original songs. You may use it for private study, scholarship, research or language learning purposes only
© 2014 AZChords.com Contact us | Privacy policy | DMCA | Add/correct tabs | Request tabs | Top 50 tabs