>
 >
Back To The Magic Of Childhood Exploring Life Part 2

Back To The Magic Of Childhood Exploring Life Part 2 Guitar Tabs

Pagans Mind - Back To The Magic Of Childhood Exploring Life Part 2 chords, tabs, tablatures, lyrics

Guitar lessons | Add/correct | Request | Top 50 tabs Artists:  A B C D E F G H I J K L M N O P Q R S T U V W X Y Z 0-9

Back To The Magic Of Childhood Exploring Life Part 2 Guitar Tabs – Pagans Mind

CD, Sheet music, Poster

Do you like Back To The Magic Of Childhood Exploring Life Part 2? Share with your friends now
Bass TabsBass Tabs v2Tabs

BACK TO THE MAGIC OF CHILDHOOD: PART 2, EXPLORING LIFE
As recorded by Pagan's Mind
(From the 2002 Album CELESTIAL ENTRANCE)

	

Music by Pagan's Mind
Arranged by Pagan's Mind

Gtr I (B E A D G B E) - 'Distortion Guitar 1'
Gtr II (B E A D G B E) - 'Distortion Guitar 2'
Gtr III (B E A D G B E) - 'Acoustic Guitar'
Gtr IV (B E A D G B E) - 'Strings'
Gtr V (B E A D G B E) - 'Low Piano'
Gtr VI (B E A D G B E) - 'Keyboard Lead'

 0:00
  Q=110
  E5               N.C.                     N.C.                Em
 3/8              7/8                      9/8
  Gtr I
                   PM-----|     PM--|        PM-----|     PM----|
  |-3--|
  S  S S S  E.     S S  S S e e S S S S E    S  S S S e e S S S S S S S S S S
|--------------||-------------------------|------------------------------------|
|--------------||-------------------------|------------------------------------|
|--------------||o------------------------|------------------------------------|
|--------------||-------------------------|------------------------------------|
|--------------||o----------5-4-------4-3-|-----------3-2-------------0-2-3-5--|
|-x--x-x-9S12\-||--0-2--3-0-----0-2-3-----|--0--2-3-0-----0-2-3-0-2-3----------|
|-x--x-x-9S12\-||-------------------------|------------------------------------|
|
| Gtr IV
| q.               q    q   q   E           +e    q   q   q   q
|--------------||--7---10---9---8---------|-(8)---8---7---7---5----------------|
|-0------------||--5----8---5---5---------|-(5)---5---5---5---3----------------|
|--------------||o-4----7---6---5---------|-(5)---5---4---4---2----------------|
|-2------------||-------------------------|------------------------------------|
|--------------||o-2----5---4---3---------|-(3)---3---2---2---0----------------|
|-0------------||-------------------------|------------------------------------|
|--------------||-------------------------|------------------------------------|


  N.C.                     N.C.                    F#5     A5    C5D#5
 7/8                      6/8                     4/8
  PM----|      PM--|        PM-----|     PM------------------------|
  S S S S  e e S S S S E    S  S S S e e S S S S   S  S S  S S S S S
|------------------------|-----------------------|--------------------||
|------------------------|-----------------------|--------------------||
|------------------------|-----------------------|-----------------3-o||
|------------------------|-----------------------|---------2-2-2-5-1--||
|----------5-4-------4-3-|-----------3-2---------|-4--4-4--0-0-0-3---o||
|-0-2-3-0------0-2-3-----|--0--2-3-0-----0-2-3-0-|-2--2-2-------------||
|------------------------|-----------------------|--------------------||
|
| q        q   q       E   +e    q     q     e     E.   E.     S S
|-7-------10---9-------8-|-(8)---8-----7-----7---|--------------------||
|-5--------8---5-------5-|-(5)---5-----5-----5---|------1------1-4----||
|-4--------7---6-------5-|-(5)---5-----4-----4---|-2-----------------o||
|------------------------|-----------------------|--------------------||
|-2--------5---4-------3-|-(3)---3-----2-----2---|-------------------o||
|------------------------|-----------------------|--------------------||
|------------------------|-----------------------|--------------------||


  N.C.                     N.C.                Em
 7/8                      9/8
  PM----|      PM--|        PM-----|     PM----|
  S S S S  e e S S S S E    S  S S S e e S S S S S S S S S S
|------------------------|-----------------------------------|
|------------------------|-----------------------------------|
|------------------------|-----------------------------------|
|------------------------|-----------------------------------|
|----------5-4-------4-3-|-----------3-2-------------0-2-3-5-|
|-0-2-3-0------0-2-3-----|--0--2-3-0-----0-2-3-0-2-3---------|
|------------------------|-----------------------------------|
|
| q        q   q       E   +e    q     q     q       q
|-7-------10---9-------8-|-(8)---8-----7-----7-------5-------|
|-5--------8---5-------5-|-(5)---5-----5-----5-------3-------|
|-4--------7---6-------5-|-(5)---5-----4-----4-------2-------|
|------------------------|-----------------------------------|
|-2--------5---4-------3-|-(3)---3-----2-----2-------0-------|
|------------------------|-----------------------------------|
|------------------------|-----------------------------------|


 0:29
                                                   Q=176
  N.C.                     N.C.                    F#5   A5    C5    D#5
 7/8                      6/8                     12/8
  PM----|      PM--|        PM-----|     PM------------------------------|
  S S S S  e e S S S S E    S  S S S e e S S S S   E E E E E E E E E E E E
|------------------------|-----------------------|-------------------------|
|------------------------|-----------------------|-------------------------|
|------------------------|-----------------------|-------------------------|
|------------------------|-----------------------|-------2-2-2-5-5-5-8-8-8-|
|----------5-4-------4-3-|-----------3-2---------|-4-4-4-0-0-0-3-3-3-6-6-6-|
|-0-2-3-0------0-2-3-----|--0--2-3-0-----0-2-3-0-|-2-2-2-------------------|
|------------------------|-----------------------|-------------------------|
|
| q        q   q       E   +e    q     q     e     E E E E E E E E E E E E
|-7-------10---9-------8-|-(8)---8-----7-----7---|-------------------------|
|-5--------8---5-------5-|-(5)---5-----5-----5---|-------------------------|
|-4--------7---6-------5-|-(5)---5-----4-----4---|-------2-2-2-5-5-5-8-8-8-|
|------------------------|-----------------------|-4-4-4-------------------|
|-2--------5---4-------3-|-(3)---3-----2-----2---|-------0-0-0-3-3-3-6-6-6-|
|------------------------|-----------------------|-2-2-2-------------------|
|------------------------|-----------------------|-------------------------|


     D5
 6/8                           8/8
  PM--------------------------------------|
  E  E E E E E   E  E E E E E   E E E E E E E E
|--------------|--------------|-----------------|
|--------------|--------------|-----------------|
|--------------|--------------|-----------------|
|--------------|--------------|-----------------|
|----5-5---5-5-|----5-5---5-5-|---5-5---5-5---5-|
|----5-5---5-5-|----5-5---5-5-|---5-5---5-5---5-|
|----3-3---3-3-|----3-3---3-3-|---3-3---3-3---3-|
|
| Gtr IV
| H.             H.             W
|-5------------|-3------------|-3---------------|
|-6------------|-5------------|-3---------------|
|-5------------|-5------------|-4---------------|
|--------------|--------------|-----------------|
|--------------|--------------|-----------------|
|--------------|--------------|-----------------|
|--------------|--------------|-----------------|


 6/8                           8/8
  PM------------------------------------------|
  E  E E E E E   E  E E E E E   E E E E E E E E
|--------------|--------------|--------------------|
|--------------|--------------|--------------------|
|--------------|--------------|--------------------|
|--------------|--------------|--------------------|
|-5----5-5---5-|-5----5-5---5-|-5---5-5---5-5------|
|-5----5-5---5-|-5----5-5---5-|-5---5-5---5-5------|
|-3----3-3---3-|-3----3-3---3-|-3---3-3---3-3------|
|
| H.             H.             W
|-5------------|-3------------|-3------------------|
|-6------------|-5------------|-3------------------|
|-5------------|-5------------|-4------------------|
|--------------|--------------|--------------------|
|--------------|--------------|--------------------|
|--------------|--------------|--------------------|
|--------------|--------------|--------------------|


                                               C5
 6/8
  PM----------------------|     PM-------|
  E  E E E E E   E  E E E E E   E  E E E E E   Q  Q  Q
|--------------|--------------|--------------|------------|
|--------------|--------------|--------------|------------|
|--------------|--------------|--------------|------------|
|--------------|--------------|--------------|-5--5--5----|
|-5--5---5-5---|-5--5---5-5---|-5--5---5-5---|-3--3--3----|
|-5--5---5-5---|-5--5---5-5---|-5--5---5-5---|-3--3--3----|
|-3--3---3-3---|-3--3---3-3---|-3--3---3-3---|-1--1--1----|
|
| H.             H.             H.             Q  Q  Q
|-5------------|-3------------|-3------------|-3--2--0----|
|-6------------|-5------------|-3------------|------------|
|-5------------|-5------------|-4------------|------------|
|--------------|--------------|--------------|------------|
|--------------|--------------|--------------|------------|
|--------------|--------------|--------------|------------|
|--------------|--------------|--------------|------------|


 6/8                         8/8
  PM------------------------------------|
  E E E E E E   E E E E E E   E E E E E E E E
|-------------|-------------|-----------------|
|-------------|-------------|-----------------|
|-------------|-------------|-----------------|
|-------------|-------------|-----------------|
|---5-5---5-5-|---5-5---5-5-|---5-5---5-5---5-|
|---5-5---5-5-|---5-5---5-5-|---5-5---5-5---5-|
|---3-3---3-3-|---3-3---3-3-|---3-3---3-3---3-|
|
| E E E E E E   E E E E E E   E E E E E E E E
|-5---1-3-5---|-3-----0-3---|-3-------3-------|
|---1-------1-|---1-3-----1-|---0-1-3---0-1-0-|
|-------------|-------------|-----------------|
|-------------|-------------|-----------------|
|-------------|-------------|-----------------|
|-------------|-------------|-----------------|
|-------------|-------------|-----------------|


 6/8                         8/8
  PM----------------------------------------|
  E E E E E E   E E E E E E   E E E E E E E E
|-------------|-------------|--------------------|
|-------------|-------------|--------------------|
|-------------|-------------|--------------------|
|-------------|-------------|--------------------|
|-5---5-5---5-|-5---5-5---5-|-5---5-5---5-5------|
|-5---5-5---5-|-5---5-5---5-|-5---5-5---5-5------|
|-3---3-3---3-|-3---3-3---3-|-3---3-3---3-3------|
|
| E E E E E E   E E E E E E   E E E E E E E E
|-5---1-3-5---|-3-----0-3---|-3-------3----------|
|---1-------1-|---1-3-----1-|---0-1-3---0-1-0----|
|-------------|-------------|--------------------|
|-------------|-------------|--------------------|
|-------------|-------------|--------------------|
|-------------|-------------|--------------------|
|-------------|-------------|--------------------|


 6/8
  PM--------------------|     PM------|
  E E E E E E   E E E E E E   E E E E E E   Q  Q  Q    Q  Q  Q
|-------------|-------------|-------------|----------|----------|
|-------------|-------------|-------------|----------|-7--7--7--|
|-------------|-------------|-------------|----------|-5--5--5--|
|-------------|-------------|-------------|-5--5--5--|-5--5--5--|
|-5-5---5-5---|-5-5---5-5---|-5-5---5-5---|-3--3--3--|-3--3--3--|
|-5-5---5-5---|-5-5---5-5---|-5-5---5-5---|-3--3--3--|----------|
|-3-3---3-3---|-3-3---3-3---|-3-3---3-3---|-1--1--1--|----------|
|
| E E E E E E   E E E E E E   E E E E E E   Q  Q  Q    Q  Q  Q
|-5---1-3-5---|-3-----0-3---|-3-------3---|-3--2--0--|-3--2--0--|
|---1-------1-|---1-3-----1-|---0-1-3---0-|----------|----------|
|-------------|-------------|-------------|----------|----------|
|-------------|-------------|-------------|----------|----------|
|-------------|-------------|-------------|----------|----------|
|-------------|-------------|-------------|----------|----------|
|-------------|-------------|-------------|----------|----------|


 Keyboard Solo 0:54
       D5
 3/8
    PM---------------------------------------
    E  E E    E  E  E     E  E E     E  E E
|----------|----------|----------|----------|
|----------|----------|----------|----------|
|----------|----------|----------|----------|
|----------|----------|----------|----------|
|------5-5-|-----5--5-|------5-5-|------5-5-|
|------5-5-|-----5--5-|------5-5-|------5-5-|
|------3-3-|-----3--3-|------3-3-|------3-3-|
|
| Gtr VI
|                                    ~~~~~~~~
|   Q.        E  E  E     Q.        +Q.
|----------|----------|-/17------|-(17)-----|
|-/18------|-18-17-15-|----------|----------|
|----------|----------|----------|----------|
|----------|----------|----------|----------|
|----------|----------|----------|----------|
|----------|----------|----------|----------|
|----------|----------|----------|----------|


 ----------------------------------------|
    E  E E    E  E  E    E  E  E    E  E  E
|----------|----------|----------|-----------|
|----------|----------|----------|-----------|
|----------|----------|----------|-----------|
|----------|----------|----------|-----------|
|------5-5-|-----5--5-|-----5--5-|-----5--5--|
|------5-5-|-----5--5-|-----5--5-|-----5--5--|
|------3-3-|-----3--3-|-----3--3-|-----3--3--|
|
|~~~~~~
|  +Q.        E  E  E    E  E  E    E  E  E
|-(17)-----|-17-18-17-|-15-------|-----------|
|----------|----------|----18-17-|-15-18-17--|
|----------|----------|----------|-----------|
|----------|----------|----------|-----------|
|----------|----------|----------|-----------|
|----------|----------|----------|-----------|
|----------|----------|----------|-----------|


      C#5
      PM------------------------------------
  +e  E E    E  E  E    E  E  E    E  E  E
|---------|----------|----------|----------|
|---------|----------|----------|----------|
|---------|----------|----------|----------|
|---------|----------|----------|----------|
|-(5)-4-4-|-----4--4-|-----4--4-|-----4--4-|
|-(5)-4-4-|-----4--4-|-----4--4-|-----4--4-|
|-(3)-2-2-|-----2--2-|-----2--2-|-----2--2-|
|
|  Q.        E  E  E    E  E  E    E  E  E
|---------|----------|----------|----------|
|-14------|----------|-14----15-|----------|
|---------|-14-15-14-|----14----|-14-15-14-|
|---------|----------|----------|----------|
|---------|----------|----------|----------|
|---------|----------|----------|----------|
|---------|----------|----------|----------|


 ----------------------------------------|
   E  E  E    E  E  E    E  E  E    E  E  E
|----------|----------|----------|----------|
|----------|----------|----------|----------|
|----------|----------|----------|----------|
|----------|----------|----------|----------|
|-----4--4-|-----4--4-|-----4--4-|-----4--4-|
|-----4--4-|-----4--4-|-----4--4-|-----4--4-|
|-----2--2-|-----2--2-|-----2--2-|-----2--2-|
|
|  E  E  E    E  E  E    E  E  E    E  E  E
|----------|----------|----------|-15----14-|
|-14----15-|----17----|-14-15-17-|----17----|
|----14----|-14----14-|----------|----------|
|----------|----------|----------|----------|
|----------|----------|----------|----------|
|----------|----------|----------|----------|
|----------|----------|----------|----------|


       C5
       PM--------------------------------------------
   +e  E E     E   E  E    E  E E     E   E    E
|----------|------------|---------|-----------------|
|----------|------------|---------|-----------------|
|----------|------------|---------|-----------------|
|----------|------------|---------|-----------------|
|--(4)-3-3-|-------3--3-|-----3-3-|-------3----3----|
|--(4)-3-3-|-------3--3-|-----3-3-|-------3----3----|
|--(2)-1-1-|-------1--1-|-----1-1-|-------1----1----|
|
|                                         |---3---|
|  +Q.        +E   E  E    Q.        +E   E  E    E
|-(14)-----|-(14)-------|-17------|-(17)------------|
|----------|------17-15-|---------|------19-17---15-|
|----------|------------|---------|-----------------|
|----------|------------|---------|-----------------|
|----------|------------|---------|-----------------|
|----------|------------|---------|-----------------|
|----------|------------|---------|-----------------|


 -----------------------------------------|
   E  E E     E  E E     E  E E     E   E  E
|---------|----------|----------|------------|
|---------|----------|----------|------------|
|---------|----------|----------|------------|
|---------|----------|----------|------------|
|-----3-3-|------3-3-|------3-3-|-------3--3-|
|-----3-3-|------3-3-|------3-3-|-------3--3-|
|-----1-1-|------1-1-|------1-1-|-------1--1-|
|
|             ~~~~~~~~~~~~~~
|  Q.        +Q.        +Q.        +E   E  E
|-22------|-(22)-----|-(22)-----|-(22)-17-18-|
|---------|----------|----------|------------|
|---------|----------|----------|------------|
|---------|----------|----------|------------|
|---------|----------|----------|------------|
|---------|----------|----------|------------|
|---------|----------|----------|------------|


      B5
      PM--------------------------------|
  +e  E E    E  E  E    E  E  E    E  E  E
|---------|----------|----------|----------|
|---------|----------|----------|----------|
|---------|----------|----------|----------|
|---------|----------|----------|----------|
|-(3)-2-2-|-----2--2-|-----2--2-|-----2--2-|
|-(3)-2-2-|-----2--2-|-----2--2-|-----2--2-|
|-(1)-0-0-|-----0--0-|-----0--0-|-----0--0-|
|
|  Q.        E  E  E    E  E  E    E  E  E
|-19------|----------|-19-------|----------|
|---------|-19-17----|----19-17-|----------|
|---------|-------16-|----------|-16-------|
|---------|----------|----------|----16-14-|
|---------|----------|----------|----------|
|---------|----------|----------|----------|
|---------|----------|----------|----------|


                        PM--------------|
   E E E     E  E E     E  E E     E  E E
|--------|----------|----------|----------|
|--------|----------|----------|----------|
|--------|----------|----------|----------|
|--------|----------|----------|----------|
|--2h4p3h|===5p=2h4p|===2h=4p3h|===5p=4h6-|
|--------|----------|----------|----------|
|--------|----------|----------|----------|
|
|            ~~~~~~~~~~~~~~~~~~~~~~~~~
|  Q.       +Q.        +Q.        +Q.
|--------|----------|----------|----------|
|--------|----------|----------|----------|
|-16-----|-(16)-----|-(16)-----|-(16)-----|
|--------|----------|----------|----------|
|--------|----------|----------|----------|
|--------|----------|----------|----------|
|--------|----------|----------|----------|


 1:10
  Em
 24/8
  Gtrs I, II, V
  PM--------------------------------------|
  E E E E E E E E E E E E E E E E E E E E E E E E
|-------------------------------------------------|
|-------------------------------------------------|
|-------------------------------------------------|
|-------------------------------------------------|
|-------------------------------------------0-----|
|-0-3-0-2-0-3-0-2-0-3-0-2-0-3-0-2-0-3-0-2-0---3-2-|
|-------------------------------------------------|


  Em
 24/8
  PM--------------------------------------|
  E E E E E E E E E E E E E E E E E E E E E E E E
|-------------------------------------------------|
|-------------------------------------------------|
|-------------------------------------------------|
|-------------------------------------------------|
|-------------------------------------------2-0---|
|-0-3-0-2-0-3-0-2-0-3-0-2-0-3-0-2-0-3-0-2-0-----3-|
|-------------------------------------------------|


  E E E E E E E E E E E E E E E E E E E E E E E E
|-------------------------------------------------|
|-------------------------------------------------|
|-------------------------------------------------|
|-------------------------------------------------|
|-------------------------------------------3p0---|
|-0-3p0-2p0-3p0-2p0-3p0-2p0-3p0-2p0-3p0-2p0-----3-|
|-------------------------------------------------|


  Em
  E E E E E E E E E E E E E E E E E E E E E E E E
|-------------------------------------------------|
|-------------------------------------------------|
|-------------------------------------------------|
|-------------------------------------------------|
|-------------------------------------------4p2---|
|-0-3p0-2p0-3p0-2p0-3p0-2p0-3p0-2p0-3p0-2p0-----3-|
|-------------------------------------------------|


  Em
 17/8
  PM------------------------------|
  E E E E E E E E E E E E E E E E E
|-----------------------------------|
|-----------------------------------|
|-----------------------------------|
|-----------------------------------|
|-------------0-----2-0---3-0---4-2-|
|-0-3-0-2-0-3---3-2-----3-----3-----|
|-----------------------------------|


   1:30
    Q=169
    G             C#            G             C#
   5/8                                       4/8
    Gtrs I, II
    PM--|         PM--|         PM--|         PM|
    E E E  E  E   E E E  E  E   E E E  E  E   E E E E
||--------------|-------------|-------------|---------|
||--------------|-------------|-------------|---------|
||o-------------|-------------|--------4--4-|---------|
||--------------|--------3--3-|-5-5-5-------|-----3-3-|
||o--------2--2-|-4-4-4-------|-------------|-4-4-----|
||--3-3-3-------|-------------|-------------|---------|
||--------------|-------------|-------------|---------|
|
|   Gtr IV
|   H     +E      H     +E      H     +E      H
||--------------|-------------|-------------|-7-------|
||--8-----(8)---|-6-----(6)---|-8-----(8)---|---------|
||o-------------|-------------|-------------|---------|
||--------------|-------------|-------------|-3-------|
||o-2-----(2)---|-4-----(4)---|-5-----(5)---|---------|
||--------------|-------------|-------------|---------|
||--------------|-------------|-------------|---------|


  G             C#            G             C#5
 5/8                                       4/8
  PM--|         PM--|         PM--|
  E E E E  E    E E E E  E    E E E E  E    E E E E
|-------------|-------------|-------------|----------||
|-------------|-------------|-------------|----------||
|-------------|-------------|-------4--4--|-----6---o||
|-------------|-------3--3--|-5-5-5-------|---6------||
|-------2--2--|-4-4-4-------|-------------|-4-------o||
|-3-3-3-------|-------------|-------------|-------4--||
|-------------|-------------|-------------|----------||
|
| H       +E    H       +E    H       +E    H
|-------------|-------------|-------------|-7--------||
|-8-------(8)-|-6-------(6)-|-8-------(8)-|----------||
|-------------|-------------|-------------|---------o||
|-------------|-------------|-------------|-3--------||
|-2-------(2)-|-4-------(4)-|-------------|---------o||
|-------------|-------------|-3-------(3)-|----------||
|-------------|-------------|-------------|----------||


  Q=155
  A5            F#5           A5
 6/8                                       2/8
   q   E q  E    q   E q  E    q   E q  E     E  E
|-------------|-------------|-------------|--------|
|-------------|-------------|-------------|--------|
|-------------|-------------|-------------|--------|
|--7---7-7--7-|--4---4-4--4-|--7---7-7--7-|--------|
|--7---7-7--7-|--4---4-4--4-|--7---7-7--7-|------4-|
|--5---5-5--5-|--2---2-2--2-|--5---5-5--5-|---2----|
|-------------|-------------|-------------|--------|
|
|  H.            H.            H.            +Q
|-------------|-------------|-------------|--------|
|-10----------|-12----------|-10----------|-(10)---|
|--9----------|-(9)---------|-(9)---------|--------|
|-------------|-------------|-------------|--------|
|-------------|-------------|-------------|--------|
|-------------|-------------|-------------|--------|
|-------------|-------------|-------------|--------|


      A5              F#5             A5
 6/8                                                2/8
   E  E E E E E    E  E E E E E    E  E E E   E  E   E E
|---------------|---------------|------------------|-----|
|---------------|---------------|------------------|-----|
|---------------|---------------|------------------|-----|
|-----7-7---7-7-|-----4-4---4-4-|-----7-7-----7--7-|-----|
|-----7-7---7-7-|-----4-4---4-4-|-----7-7-----7--7-|---3-|
|-----5-5---5-5-|-----2-2---2-2-|-----5-5-----5--5-|-3---|
|---------------|---------------|------------------|-----|
|
|  H.              H.              H         +Q      Q
|---------------|---------------|------------------|-----|
|-10------------|-12------------|-10--------(10)---|-----|
|--9------------|-(9)-----------|-(9)--------------|-----|
|---------------|---------------|------------------|-----|
|---------------|---------------|------------------|-----|
|---------------|---------------|------------------|-----|
|---------------|---------------|------------------|-----|


    Q=163
    G             C#            G             C#
   5/8                                       4/8
    PM--|         PM--|         PM--|         PM|
    E E E E  E    E E E E  E    E E E E  E    E E E E
||--------------|-------------|-------------|---------|
||--------------|-------------|-------------|---------|
||o-------------|-------------|-------4--4--|---------|
||--------------|-------3--3--|-5-5-5-------|-----3-3-|
||o-------2--2--|-4-4-4-------|-------------|-4-4-----|
||--3-3-3-------|-------------|-------------|---------|
||--------------|-------------|-------------|---------|
|
|   H       +E    H       +E    H       +E    H
||--------------|-------------|-------------|-7-------|
||--8-------(8)-|-6-------(6)-|-8-------(8)-|---------|
||o-------------|-------------|-------------|---------|
||--------------|-------------|-------------|-3-------|
||o-2-------(2)-|-4-------(4)-|-2-------(2)-|---------|
||--------------|-------------|-------------|---------|
||--------------|-------------|-------------|---------|


  G             C#            G             C#5
 5/8                                       4/8
  PM--|         PM--|         PM--|
  E E E E  E    E E E E  E    E E E E  E    E E E E
|-------------|-------------|-------------|----------||
|-------------|-------------|-------------|----------||
|-------------|-------------|-------4--4--|-----6---o||
|-------------|-------3--3--|-5-5-5-------|---6---6--||
|-------2--2--|-4-4-4-------|-------------|-4-------o||
|-3-3-3-------|-------------|-------------|----------||
|-------------|-------------|-------------|----------||
|
| H       +E    H       +E    H       +E    H
|-------------|-------------|-------------|-7--------||
|-8-------(8)-|-6-------(6)-|-8-------(8)-|----------||
|-------------|-------------|-------------|---------o||
|-------------|-------------|-------------|-3--------||
|-2-------(2)-|-4-------(4)-|-2-------(2)-|---------o||
|-------------|-------------|-------------|----------||
|-------------|-------------|-------------|----------||


 2:05
  Q=157
  Bm7           D/F#          D5/G          Fsus2
 5/8                                       4/8
  E E E E  E    E E E E  E    E E E  E  E   E E E E
|-------------|-------------|-------------|---------|
|-------------|-------------|-------------|---------|
|---2---------|---2---------|---2---------|-----0---|
|-------0-----|-------0-----|--------0----|---3---3-|
|-2---2----2--|-------------|-------------|---------|
|-------------|-2---2----2--|-3---3-----3-|-1-------|
|-------------|-------------|-------------|---------|
|
| Gtr V
| H       +E    H       +E    H     +E      H
|-2-------(2)-|-5-------(5)-|-3-----(3)---|-1-------|
|-0-------(0)-|-3-------(3)-|-3-----(3)---|-1-------|
|-2-------(2)-|-4-------(4)-|-0-----(0)---|-3-------|
|-------------|-4-------(4)-|-0-----(0)---|---------|
|-------------|-------------|-------------|---------|
|-------------|-------------|-------------|---------|
|-------------|-------------|-------------|---------|


  Bm7           D/F#          Csus2         D#5
 5/8                                       2/8
  E E E E  E    E E E E  E    E E E E  E    E E
|-------------|-------------|-------------|-------|
|-------------|-------------|---3---------|-------|
|---2---------|---2---------|-------0-----|-------|
|-------0-----|-------0-----|-----0-------|-------|
|-2---2----2--|-------------|-3--------3--|-6-6---|
|-------------|-2---2----2--|-------------|-6-6---|
|-------------|-------------|-------------|-4-4---|
|
| H       +E    H       +E    H       +E    Q
|-2-------(2)-|-5-------(5)-|-3-------(3)-|-------|
|-0-------(0)-|-3-------(3)-|-1-------(1)-|-------|
|-2-------(2)-|-4-------(4)-|-0-------(0)-|-------|
|-------------|-4-------(4)-|-2-------(2)-|-------|
|-------------|-------------|-------------|-------|
|-------------|-------------|-------------|-------|
|-------------|-------------|-------------|-------|


  Bm7           D/F#          D5/G          Fsus2
 5/8                                       4/8
  E E E E  E    E E E E  E    E E E E  E    E E E E
|-------------|-------------|-------------|---------|
|-------------|-------------|-------------|---------|
|---2---------|---2---------|---2---------|-----0---|
|-------0-----|-------0-----|-------0-----|---3---3-|
|-2---2----2--|-------------|-------------|---------|
|-------------|-2---2----2--|-3---3----3--|-1-------|
|-------------|-------------|-------------|---------|
|
| H       +E    H       +E    H       +E    H
|-2-------(2)-|-5-------(5)-|-3-------(3)-|-1-------|
|-0-------(0)-|-3-------(3)-|-3-------(3)-|-1-------|
|-2-------(2)-|-4-------(4)-|-0-------(0)-|-3-------|
|-------------|-4-------(4)-|-0-------(0)-|---------|
|-------------|-------------|-------------|---------|
|-------------|-------------|-------------|---------|
|-------------|-------------|-------------|---------|


                                            Q=156
  Bm7           D/F#          Csus2            D#5
 5/8                                       3/8
  E E E E  E    E E E E  E    E E E E  E    E  E E
|-------------|-------------|-------------|--------|
|-------------|-------------|---3---------|--------|
|---2---------|---2---------|-------0-----|----8-x-|
|-------0-----|-------0-----|-----0-------|----8-x-|
|-2---2----2--|-------------|-3--------3--|----6-x-|
|-------------|-2---2----2--|-------------|--------|
|-------------|-------------|-------------|--------|
|
| H       +E    H       +E    H       +E    Q.
|-2-------(2)-|-5-------(5)-|-3-------(3)-|--------|
|-0-------(0)-|-3-------(3)-|-1-------(1)-|--------|
|-2-------(2)-|-4-------(4)-|-0-------(0)-|--------|
|-------------|-4-------(4)-|-2-------(2)-|--------|
|-------------|-------------|-------------|--------|
|-------------|-------------|-------------|--------|
|-------------|-------------|-------------|--------|


 2:20
  B5          F#5         G5            F5
 5/8                                 4/8
  E E E E E   E E E E E   E E E E E   E E E E
|-----------|-----------|-----------|---------|
|-----------|-----------|-----------|---------|
|-----------|-----------|-----------|---------|
|-9---------|-4---------|-5---------|---3-----|
|-9---------|-4---------|-5---------|---3-----|
|-7---------|-2---------|-3---------|---1-----|
|-----------|-----------|-----------|---------|


  B5          F#5         C5             D#5
 5/8                                  3/8
  E E E E E   E E E E E    E E E E E   E E E
|-----------|-----------|------------|-------|
|-----------|-----------|------------|-------|
|-----------|-----------|------------|-------|
|-9---------|-4---------|-10---------|---8-x-|
|-9---------|-4---------|-10---------|---6-x-|
|-7---------|-2---------|--8---------|---6-x-|
|-----------|-----------|------------|-------|


  B5          F#5         G5            F5
 5/8                                 4/8
  E E E E E   E E E E E   E E E E E   E E E E
|-----------|-----------|-----------|---------|
|-----------|-----------|-----------|---------|
|-----------|-----------|-----------|---------|
|-9---------|-4---------|-5---------|---3-----|
|-9---------|-4---------|-5---------|---3-----|
|-7---------|-2---------|-3---------|---1-----|
|-----------|-----------|-----------|---------|


  B5          F#5         C5             D#5
 5/8                                  2/8
  E E E E E   E E E E E    E E E E E   E E
|-----------|-----------|------------|-----|
|-----------|-----------|------------|-----|
|-----------|-----------|------------|-----|
|-9---------|-4---------|-10---------|---8-|
|-9---------|-4---------|-10---------|---6-|
|-7---------|-2---------|--8---------|---6-|
|-----------|-----------|------------|-----|


  B5          F#5         G5          F5
 5/8                                 4/8
    PM----|     PM----|     PM----|
  E E E E E   E E E E E   E E E E E   S S S S S S S S
|-----------|-----------|-----------|-----------------|
|-----------|-----------|-----------|-----------------|
|-x-4-------|-6---------|-7---------|-----------------|
|-x-4-------|-4---------|-5---------|-----------------|
|-x-2-------|-4-4-4-x-4-|-5-5-5-x-5-|-3-3-3-3-3-3-3-3-|
|-x-2-2-x-2-|-2-2-2-x-2-|-3-3-3-x-3-|-1-1-1-1-1-1-1-1-|
|-x-0-0-x-0-|-----------|-----------|-----------------|


  B5          F#5         C5          D#5
 5/8                                 2/8
    PM----|     PM----|     PM----|
  E E E E E   E E E E E   E E E E E   E E
|-----------|-----------|-----------|-----|
|-----------|-----------|-----------|-----|
|-4---------|-6---------|-----------|-8-8-|
|-4-4-4-x-4-|-4---------|-5---------|-8-8-|
|-2-2-2-x-2-|-4-4-4-x-4-|-3---------|-6-6-|
|-----------|-2-2-2-x-2-|-3-3-3-x-3-|-----|
|-----------|-----------|---1-1-x-1-|-----|


  B5          F#5         G5          F5
 5/8                                 8/8
    PM----|     PM----|     PM----|
  E E E E E   E E E E E   E E E E E   S S S S S S S S S S S S S S S S
|-----------|-----------|-----------|----------------------------------|
|-----------|-----------|-----------|---------2-4-2--------------------|
|-----------|-----------|-7---------|-----2-4-------4-2-0---0-2-0------|
|-4---------|-4---------|-5---------|-3-5-----------------3-------4-3\-|
|-2---------|-4-4-4-x-4-|-5-5-5-x-5-|----------------------------------|
|-2-2-2-x-2-|-2-2-2-x-2-|-3-3-3-x-3-|----------------------------------|
|-0-0-0-x-0-|-----------|-----------|----------------------------------|


  B5          F#5         C5
 5/8
    PM----|     PM----|     PM----|
  E E E E E   E E E E E   E E E E E
|-----------|-----------|-----------|
|-----------|-----------|-----------|
|-4---------|-6---------|-----------|
|-4-4-4-x-4-|-4---------|-5---------|
|-2-2-2-x-2-|-4-4-4-x-4-|-3---------|
|-----------|-2-2-2-x-2-|-3-3-3-x-3-|
|-----------|-----------|---1-1-x-1-|


 2:47
  Q=150
  D#5            C5             A5             F#5
 4/4
  E E Q  Q  Q    E E Q  Q  Q    E E Q  Q  Q    E E Q  Q  Q
|--------------|--------------|--------------|--------------|
|--------------|--------------|--------------|--------------|
|-8-8----------|-5-5----------|-2-2----------|--------------|
|-8-8----------|-5-5----------|-2-2----------|-4-4----------|
|-6-6----------|-3-3----------|-0-0----------|-4-4----------|
|--------------|--------------|--------------|-2-2----------|
|--------------|--------------|--------------|--------------|


 2:53
  Q=130
  D#              C               A               F#
 7/8                                             8/8
  Gtr I
  E E E E E E E   E E E E E E E   E E E E E E E   E E E E E E E E
|---------------|---------------|---------------|-----------------|
|---------------|---------------|---------------|-----------------|
|---------------|---------------|---------------|-----------------|
|-----8-5-7---5-|-----5-2-4---2-|---------------|-----------------|
|-6-6-------8---|-3-3-------5---|-----7-4-6---4-|-------4-1-3---1-|
|---------------|---------------|-5-5-------7---|-2-2-2-------4---|
|---------------|---------------|---------------|-----------------|


  A                               F#
 7/8                                             8/8
  Gtrs I, VI
  E E E E E E E   E E E E E E E   E E E E E E E   E E E E E E E E
|---------------|---------------|---------------|-----------------|
|---------------|---------------|---------------|-----------------|
|-----9-6-8---6-|-----9-6-8---6-|-----6-3-5---3-|-------6-3-5---3-|
|-7-7-------9---|-7-7-------9---|-4-4-------6---|-4-4-4-------6---|
|---------------|---------------|---------------|-----------------|
|---------------|---------------|---------------|-----------------|
|---------------|---------------|---------------|-----------------|


  Q=132
  A                               F#
 7/8                                             8/8
  E E E E E E E   E E E E E E E   E E E E E E E   E E E E E E E E
|---------------|---------------|---------------|-----------------|
|---------------|---------------|---------------|-----------------|
|-----9-6-8---6-|-----9-6-8---6-|-----6-3-5---3-|-------6-3-5---3-|
|-7-7-------9---|-7-7-------9---|-4-4-------6---|-4-4-4-------6---|
|---------------|---------------|---------------|-----------------|
|---------------|---------------|---------------|-----------------|
|---------------|---------------|---------------|-----------------|


  A                                B
 7/8
  E E E E E E E   E E E E E E  E   E E  E E E E  E   E  E  E E  E E E
|---------------|----------------|-----------------|------------------|
|---------------|----------------|-----------------|---12-10-9--------|
|-----9-6-8---6-|-----9-6-8-9-11-|-----11-8-9-8----|-----------11-9-8-|
|-7-7-------9---|-7-7------------|-9-9----------11-|-9----------------|
|---------------|----------------|-----------------|------------------|
|---------------|----------------|-----------------|------------------|
|---------------|----------------|-----------------|------------------|


  A                                B
 7/8
  E E E E E E E   E E E E E E  E   E E  E E E E  E   E E  E E E  E  E
|---------------|----------------|-----------------|------------------|
|---------------|----------------|-----------------|---------------12-|
|-9---9-6-8---6-|-----9-6-8-9-11-|-----11-8-9-8----|-----11-8-9-11----|
|---7-------9---|-7-7------------|-9-9----------11-|-9-9--------------|
|---------------|----------------|-----------------|------------------|
|---------------|----------------|-----------------|------------------|
|---------------|----------------|-----------------|------------------|


 3:26
  C
 7/8
   E  E  E  E  E  E  E    E  E  E  E E E E
|-------------10-------|-------------------|
|-12-10-13-12----13-12-|-10-13-12-10-8-7-8-|
|----------------------|-------------------|
|----------------------|-------------------|
|----------------------|-------------------|
|----------------------|-------------------|
|----------------------|-------------------|


  Q=129
  D
   E E  E E E E E   E E  E E S S S S S S
|-----------------|-----------------------|
|-10---10-7h8p7---|-----10---8-7-------6--|
|----7----------9-|-7-7----7-----9-7-9----|
|-----------------|-----------------------|
|-----------------|-----------------------|
|-----------------|-----------------------|
|-----------------|-----------------------|


  A#                              G
 7/8                                             8/8
  E E E E E E E   E E E E E E E   E E E E E E E   E E E E E E E E
|---------------|---------------|---------------|-----------------|
|-----6-3-5---3-|-----6-3-5---3-|---------------|-----------------|
|-3-3-------5---|-3-3-------5---|---------------|-----------------|
|---------------|---------------|---------------|-----------------|
|---------------|---------------|-----5-2-4---2-|-------5-2-4---2-|
|---------------|---------------|-3-3-------5---|-3-3-3-------5---|
|---------------|---------------|---------------|-----------------|


  Q=132
 7/8             8/8               7/8             8/8
  E E E E E E E   E E E E E E E E   E E E E E E E   E E E E E E E E
|---------------|-----------------|---------------|-----------------|
|---------------|-----------------|---------------|-----------------|
|---------------|-----------------|-----7-4-6---4-|-------7-4-6---4-|
|---------------|-----------------|-5-5-------7---|-5-5-5-------7---|
|-----5-2-4---2-|-------5-2-4---2-|---------------|-----------------|
|-3-3-------5---|-3-3-3-------5---|---------------|-----------------|
|---------------|-----------------|---------------|-----------------|


 7/8             6/8
  E E E E E E E   S S S S S S S S S S S S
|---------------|-------------------------|
|---------------|-----------5-------------|
|-----7-4-6---4-|-----4-6-7---7-6-4---4-6-|
|-5-5-------7---|-5-7---------------7-----|
|---------------|-------------------------|
|---------------|-------------------------|
|---------------|-------------------------|


 Guitar Solo 3:49
  Q=126
  Dsus2                           Fsus4/D
 7/4
  Gtrs I, VI
                   >
  ~
  W               +H.             +W                +H.
|-------------------------------|--------------------------|
|-------------------------------|--------------------------|
|-7---------------(7)-----------|-(7)---------------(7)----|
|-------------------------------|--------------------------|
|-------------------------------|--------------------------|
|-------------------------------|--------------------------|
|-------------------------------|--------------------------|
|
| Gtr III
| E E E E E E E E  E  E E E E E    E  E E E E E E E +H.
|---------5---------------5-----|-----------1--------------|
|-----5-----5---------5-----5---|-------1-----1------------|
|---2---2-----2----2----2-----2-|-----3---3-----3----------|
|-0-------------0---------------|--0--------------0-(0)----|
|-------------------------------|--------------------------|
|-------------------------------|--------------------------|
|-------------------------------|--------------------------|


  Dsus2                            Fsus4/D
  Gtr I
   W               +H.              H.             W
|--------------------------------|-------------------------------|
|--------------------------------|-------------------------------|
|--------------------------------|-------------------------------|
|-/7---------------(7)-----------|-/5--------------3-------------|
|--------------------------------|-------------------------------|
|--------------------------------|-------------------------------|
|--------------------------------|-------------------------------|
|
|  E E E E E E E E  E  E E E E E    E  E E E E. E.   H    +Q.
|----------5---------------5-----|-----------1-------------------|
|------5-----5---------5-----5---|-------1------1----------------|
|----2---2-----2----2----2-----2-|-----3---3---------3----(3)----|
|--0-------------0---------------|--0----------------------------|
|--------------------------------|-------------------------------|
|--------------------------------|-------------------------------|
|--------------------------------|-------------------------------|


  Q=125
  Dadd9                           Fsus4/D
  E E E E +H.           E E Q     Q.     E  Q.     H       +Q.
|-------5-(5)-------------------|----------/5------3-------(3)------|
|---5-7-----------------7-5-3---|--------3--------------------------|
|-7-----------------------------|-3---------------------------------|
|-------------------------------|-----------------------------------|
|-------------------------------|-----------------------------------|
|-------------------------------|-----------------------------------|
|-------------------------------|-----------------------------------|
|
| E E E E  E  E E E E E E E E E   E  E E E  E  E E E E E E  E  E E
|----------2--------------5-----|-----------1---------------1-------|
|-----5-------5-------5-----5---|------1-------1-------1-------1----|
|---2---2-------2---2---2-----2-|----3---3-------3---3---3-------3--|
|-0---------------0-------------|-0----------------0----------------|
|-------------------------------|-----------------------------------|
|-------------------------------|-----------------------------------|
|-------------------------------|-----------------------------------|


  Q=123
  Dsus2                          F/Bb
                                                 ~~
  Q   E Q   q   H.           E   H        Q.     H        Q.
|-2---5-0---2------------------|---------------------------------|
|---------------3\-------------|---------/6------5-------/5\-----|
|----------------------------2S|=3-------------------------------|
|------------------------------|---------------------------------|
|------------------------------|---------------------------------|
|------------------------------|---------------------------------|
|------------------------------|---------------------------------|
|
| E E E E E E E E  E E E E E E   E E E E  E  E E E E E E  E  Q
|---------5--------------5-----|----------1---------------1------|
|-----5-----5--------5-----5---|-----3-------3-------3-------3---|
|---2---2-----2----2---2-----2-|-0h3---3-------3-0h3---3---------|
|-0-------------0--------------|---------------------------------|
|------------------------------|---------------------------------|
|------------------------------|---------------------------------|
|------------------------------|---------------------------------|


  Dsus2                             Fsus4/D
  ~~                                 ~~~
  H.           E E +Q.     q.        H.           W
|---------------------------------|---------------------------------|
|---------------------------------|---------------------------------|
|-7-------------------------------|---------------------------------|
|--------------5S4-(4)-----7------|-/8------------5\----------------|
|---------------------------------|---------------------------------|
|---------------------------------|---------------------------------|
|---------------------------------|---------------------------------|
|
| E  E E E E E E E  E  E E E  E E    E  E E E E E E  E E E E E E E
|----------5---------------5------|-----------1--------------1------|
|------5-----5---------5------5---|-------1-----1--------1-----1----|
|----2---2-----2----2----2------2-|-----3---3-----3----3---3-----3--|
|-0--------------0----------------|--0---------------0--------------|
|---------------------------------|---------------------------------|
|---------------------------------|---------------------------------|
|---------------------------------|---------------------------------|


  Dsus2
                         |--3--| |--3--|
  Q.     E E h       S S E E   E E E   E
|----------------------------------------|
|----------6-8-------9-8-6-----6---------|
|--------7-----------------7-----7-5-----|
|--------------------------------------8-|
|----------------------------------------|
|----------------------------------------|
|----------------------------------------|
|
| E  E E E E E E E E E   E   E   E   E
|----------5-----------------5-----------|
|------5-----5-------5-----------5-------|
|----2---2-----2---2-----2-----------2---|
|-0--------------0-----------------------|
|----------------------------------------|
|----------------------------------------|
|----------------------------------------|


  F/Bb
  S S.   Q     +S. +E  H        Q   Q.
|------------------------------------------|
|--------6-----(6)-(6)---------------------|
|-5-7------------------7\------------------|
|-------------------------------7---5\-----|
|------------------------------------------|
|------------------------------------------|
|------------------------------------------|
|
| E    E   E E      E  E  E E E E E E  Q
|-------------------1---------------1------|
|----------3-----------3--------3------3---|
|-0h===3-----3------------3-0h3---3--------|
|------------------------------------------|
|------------------------------------------|
|------------------------------------------|
|------------------------------------------|


  Dsus2                             Fsus4/D
                   ~~                ~~
  E E E E +Q.      H       +Q.       H       +E  E E  Q      Q  Q.
|-------5-(5)------4-------(4)\---|-/5-------(5)-3--------------------|
|---5-7---------------------------|----------------6-/5-----/6--------|
|-7-------------------------------|-----------------------------5\----|
|---------------------------------|-----------------------------------|
|---------------------------------|-----------------------------------|
|---------------------------------|-----------------------------------|
|---------------------------------|-----------------------------------|
|
| E E E E  E  E E  E +H.             E E E E  E  E E  E +H.
|----------5------^5-(5)----------|-----------1------^1-(1)-----------|
|-----5-------5---^5-(5)----------|------3-------3---^3-(3)-----------|
|---2---2-------2-^2-(2)----------|----3---3-------3-^3-(3)-----------|
|-0---------------^0-(0)----------|--0---------------^0-(0)-----------|
|---------------------------------|-----------------------------------|
|---------------------------------|-----------------------------------|
|---------------------------------|-----------------------------------|


  Dsus2
                   ~~
  E E E E +Q.      H       Q.
|-------5-(5)-----/7-------7\---|
|---5-7-------------------------|
|-7-----------------------------|
|-------------------------------|
|-------------------------------|
|-------------------------------|
|-------------------------------|
|
| E E E E  E  E E  E +H.
|----------5------^5-(5)--------|
|-----5-------5---^5-(5)--------|
|---2---2-------2-^2-(2)--------|
|-0---------------^0-(0)--------|
|-------------------------------|
|-------------------------------|
|-------------------------------|


  F/Bb
  H        Q.          Q    S  S  S  S S  S S S S S
|---------12b13.5r====12---10h12--------------------|
|--------------------------------13-10-9-10p8-6-5---|
|-------------------------------------------------5-|
|---------------------------------------------------|
|---------------------------------------------------|
|---------------------------------------------------|
|---------------------------------------------------|
|
| E E E E  E      E E  E E  E     E    E    Q
|----------1---------------------------1------------|
|-----3-----------3---------3---------------3-------|
|-0h3---3-----------3--0h3--------3-----------------|
|---------------------------------------------------|
|---------------------------------------------------|
|---------------------------------------------------|
|---------------------------------------------------|


  Dsus2                            Fsus4/D
  Gtr I
  E E E  E E E E E +H.             E E  E S  S E  E  E  E  +H.
|--------------------------------|--------8h10p8-------12-(12)-----------|
|-----7-10-9---7-----------------|---------------10-11-------------------|
|-7-9--------9---7-(7)-----------|-7-9-10--------------------------------|
|--------------------------------|---------------------------------------|
|--------------------------------|---------------------------------------|
|--------------------------------|---------------------------------------|
|--------------------------------|---------------------------------------|
|
| Gtr V
| E E E  E E E E E +H.             E E  E S  S E  E  E  E  +H.
|--------------------------------|--------8-10-8-------12-(12)-----------|
|-----7-10-9---7-----------------|---------------10-11-------------------|
|-7-9--------9---7-(7)-----------|-7-9-10--------------------------------|
|--------------------------------|---------------------------------------|
|--------------------------------|---------------------------------------|
|--------------------------------|---------------------------------------|
|--------------------------------|---------------------------------------|
|
| Gtr III
| E E E  E E E E E  E  E E E E E   E E  E E    E  E  E  E   E  E E E E E
|----------5---------------5-----|-------------1-------------------1-----|
|-----5------5---------5-----5---|------1---------1------------1-----1---|
|---2----2-----2----2----2-----2-|---3----3----------3------3----3-----3-|
|-0--------------0---------------|-0--------------------0----------------|
|--------------------------------|---------------------------------------|
|--------------------------------|---------------------------------------|
|--------------------------------|---------------------------------------|


  Dsus2
  E E E  E E E E E +H.
|--------------------------------|
|-----7-10-9---7-----------------|
|-7-9--------9---7-(7)-----------|
|--------------------------------|
|--------------------------------|
|--------------------------------|
|--------------------------------|
|
| E E E  E E E E E +H.
|--------------------------------|
|-----7-10-9---7-----------------|
|-7-9--------9---7-(7)-----------|
|--------------------------------|
|--------------------------------|
|--------------------------------|
|--------------------------------|
|
| E E E  E E E E E  E  E E E E E
|----------5---------------5-----|
|-----5------5---------5-----5---|
|---2----2-----2----2----2-----2-|
|-0--------------0---------------|
|--------------------------------|
|--------------------------------|
|--------------------------------|


  F/Bb
   S  S  Q    S  S  Q    S  S  E  E  E E  E E  E
|--------8----------8----------8------------------|
|-10h11------10h11------10h11----11-10-8----------|
|----------------------------------------10-9-----|
|---------------------------------------------10--|
|-------------------------------------------------|
|-------------------------------------------------|
|-------------------------------------------------|
|
|  S  S  Q    S  S  Q    S  S  E  E  E E  E E  E
|-------------------------------------------------|
|-------10---------10---------10------------------|
|-10-12------10-12------10-12----12-10-9--7-9-----|
|---------------------------------------------10--|
|-------------------------------------------------|
|-------------------------------------------------|
|-------------------------------------------------|
|
|  E     E E  E     E E  E     E  E  E E  E Q
|-------------------1---------------------1-------|
|----------3----------3--------------3------3-----|
|--0h====3----3----------3-----0h=3----3----------|
|-------------------------------------------------|
|-------------------------------------------------|
|-------------------------------------------------|
|-------------------------------------------------|


 4:57
  Dsus2                              Fsus4/D
  Gtrs I, V
   E E E  E E E E E  E  E  E E E E    E E  E  E E E  E E  E   E  E E E  E
|----------------------------------|----------------------------12-8-------|
|------7-10-9---7-------7-10-9---7-|---------10-8--------------------8-10--|
|--7-9--------9---7--9---------9---|--7-9-10------9-10-7--9--10------------|
|----------------------------------|---------------------------------------|
|----------------------------------|---------------------------------------|
|----------------------------------|---------------------------------------|
|----------------------------------|---------------------------------------|
|
|  W                +H.               W                  +H.
|-^5----------------(5)------------|-^1------------------(1)---------------|
|-^5----------------(5)------------|-^3------------------(3)---------------|
|-^2----------------(2)------------|-^3------------------(3)---------------|
|-^0----------------(0)------------|-^0------------------(0)---------------|
|----------------------------------|---------------------------------------|
|----------------------------------|---------------------------------------|
|----------------------------------|---------------------------------------|


  Dsus2                               F/Bb
   E E E  E E E E E  E  E  E E E  E    E E  E  E E E  E E  E   E  E E E  E
|----------------------------7------|----------------------------12-8-------|
|------7-10-9---7-------7-10---9-10-|---------10-8--------------------8-10--|
|--7-9--------9---7--9--------------|--7-9-10------9-10-7--9--10------------|
|-----------------------------------|---------------------------------------|
|-----------------------------------|---------------------------------------|
|-----------------------------------|---------------------------------------|
|-----------------------------------|---------------------------------------|
|
|  W                +H.                W                  +H.
|-^5----------------(5)-------------|-^0------------------(0)---------------|
|-^5----------------(5)-------------|-^1------------------(1)---------------|
|-^2----------------(2)-------------|-^3------------------(3)---------------|
|-^0----------------(0)-------------|---------------------------------------|
|-----------------------------------|---------------------------------------|
|-----------------------------------|---------------------------------------|
|-----------------------------------|---------------------------------------|


  Q=127
  Dsus2                                Fsus4/D
   E E E Q      E E E  E  E  E E E E    E  E S  S Q   E E E  E   E  E E E  E
|------------------------------------|-----------------------------12-8------|
|------7-9b10r=10-9-------7-10-9---7-|-------8h10-8---------------------8-10-|
|--7-9--------------7--9---------9---|--7-10---------10-9-7--9--10-----------|
|------------------------------------|---------------------------------------|
|------------------------------------|---------------------------------------|
|------------------------------------|---------------------------------------|
|------------------------------------|---------------------------------------|
|
|  W                  +H.               W                   +H.
|-^5------------------(5)------------|-^1-------------------(1)--------------|
|-^5------------------(5)------------|-^3-------------------(3)--------------|
|-^2------------------(2)------------|-^3-------------------(3)--------------|
|-^0------------------(0)------------|-^0-------------------(0)--------------|
|------------------------------------|---------------------------------------|
|------------------------------------|---------------------------------------|
|------------------------------------|---------------------------------------|


  Dsus2                               F/Bb
   E  E E Q   Q  E  E  E  E  E  E E    E E  E E E  E  E  E  E   E  E  E  E  E
|---------8--12----------13-12-10-8-|----------------------10--13-12-15-14-17--|
|-------8--------------8------------|-----------8----10-11---------------------|
|--9-10----------9-10---------------|----7-10-9---10---------------------------|
|-----------------------------------|--9---------------------------------------|
|-----------------------------------|------------------------------------------|
|-----------------------------------|------------------------------------------|
|-----------------------------------|------------------------------------------|
|
|  W               +H.                 W                   +H.
|-^5---------------(5)--------------|-^0-------------------(0)-----------------|
|-^5---------------(5)--------------|-^3-------------------(3)-----------------|
|-^2---------------(2)--------------|-^0-------------------(0)-----------------|
|-^0---------------(0)--------------|------------------------------------------|
|-----------------------------------|------------------------------------------|
|-----------------------------------|------------------------------------------|
|-----------------------------------|------------------------------------------|


 Guitars 5:24
  Q=120
  Dsus2        Dmaj7add9     Csus2       Cmaj7add9
 6/4
   Q   Q   H       H         H       H       H
|-14\----------------------|-------------------------|
|--------------------------|-------------------------|
|--------------------------|-------------------------|
|--------------------------|-------------------------|
|--------------------------|-------------------------|
|--------------------------|-------------------------|
|--------------------------|-------------------------|
|
| Gtr III
|  E E E E E E E E E E E E   E E E E E E E E E E E E
|--------5---------7p5-----|-------3---------5p3-----|
|--7p5-----5-----5-----5---|-5p3-----3-----3-----3---|
|------7-----7-6---------6-|-----5-----5-4---------4-|
|--------------------------|-------------------------|
|--------------------------|-------------------------|
|--------------------------|-------------------------|
|--------------------------|-------------------------|


  Q=117
  Bbsus2      Csus2/F       A7      A7sus4     A7
  Gtr III
  E E E E E E E E E E E E   E E E E  E  E Q  E Q.
|-------1-----------3-----|-------------0-----------|
|-3p1-----1-----------3---|-------2h=3----3--3-2----|
|-----3-----3-----0-----0-|-----0-0-(0)---0--0-0----|
|-------------------------|---2---------------------|
|---------------3---------|-0-----------------------|
|-------------1-----------|-------------------------|
|-------------------------|-------------------------|


 Bass Solo 5:36
  Q=119
  Dsus2       Dmaj7add9     Csus2       Cmaj7add9
  E E E E E E E E E E E E   E E E E E E E E E E E E
|-------5---------7p5-----|-------3---------5p3-----|
|-7p5-----7-----5-----5---|-5p3-----5-----3-----3---|
|-----7-----7-6---------6-|-----5-----5-4---------4-|
|-------------------------|-------------------------|
|-------------------------|-------------------------|
|-------------------------|-------------------------|
|-------------------------|-------------------------|


  Bbsus2      Csus2/F       A7      A7sus4     A7
  E E E E E E E E E E E E   E E E E  E  E Q  E Q.
|-------1-----------3-----|-------------0-0---------|
|-3p1-----1-----------3---|-------2h=3----3--3-2----|
|-----3-----3-----0-----0-|-----0-0-(0)---0--0-0----|
|-------------------------|---2---------------------|
|---------------3---------|-0-----------------------|
|-------------1-----------|-------------------------|
|-------------------------|-------------------------|


 5:50
  Q=122
  Dsus2       Dmaj7add9     Csus2       Cmaj7add9
  Gtr I
  E E E E E E E E E E E E   E E E E E E E E E E E E
|-------5---------7---5---|-------3---------5---3---|
|-7p5-----7---5-5---x---x-|-5p3-----5---3-3---x---x-|
|-----7-----7-6-----------|-----5-----5-4-----------|
|-------------------------|-------------------------|
|-------------------------|-------------------------|
|-------------------------|-------------------------|
|-------------------------|-------------------------|


  Q=123
  Bbsus2      Csus2/F        A7      A7sus4     A7
  E E E E E E E E E E  Q     E E E E  E  E Q  E Q.
|-------1--------------3---|-------------0-0--0------|
|-3p1-----1---------3-(3)--|-------2h=3----3--3-2----|
|-----3-----3-----0--------|-----0-0-(0)---0--0-0----|
|---------------3----------|---2---------------------|
|--------------------------|-0-----------------------|
|-------------1------------|-------------------------|
|--------------------------|-------------------------|


  Q=122
  Dsus2       Dmaj7add9     Csus2       Cmaj7add9
  E E E E E E E E E E E E   E E E E E E E E E E E E
|-------5---------7---5---|-------3---------5---3---|
|-7p5-----7---5-5---x---x-|-5p3-----5---3-3---x---x-|
|-----7-----7-6-----------|-----5-----5-4-----------|
|-------------------------|-------------------------|
|-------------------------|-------------------------|
|-------------------------|-------------------------|
|-------------------------|-------------------------|


  Bbsus2      Csus2/F      Asus4        C5         Asus4        C5
  E E E E E E E E E E Q    E E E  Q   e q  q  Q    E E E  Q   e E E q  Q
|-------1-------------3--|-----------------------|------------------------|
|-3p1-----1---------3----|--------3--------------|-----2--3---------------|
|-----3-----3-----0------|-----2--2--------------|-----2--2---------------|
|---------------3--------|-x-x-2-(2)--2-5--5--5--|-x-x-2-(2)--2-5-5-5--5--|
|------------------------|-0-0--------0-3--3--3--|-0-0--------0-3-3-3--3--|
|-------------1----------|-----------------------|------------------------|
|------------------------|-----------------------|------------------------|


 6:15
  Dsus2        Dmaj7add9     Csus2       Cmaj7add9
   E E E E E E E E E E E E   E E E E E E E E E E E E
|--------5---------7---5---|-------3---------5---3---|
|-/7-5-----7---5-5---x---x-|-5p3-----5---3-3---x---x-|
|------7-----7-6-----------|-----5-----5-4-----------|
|--------------------------|-------------------------|
|--------------------------|-------------------------|
|--------------------------|-------------------------|
|--------------------------|-------------------------|


  Bbsus2      Csus2/F        A7
  E E E E E E E E E E  Q      E E E E  E T  T E  S  E E E  E  E
|-------1------------------|------7---10-9h10p9-------7-9-10-12-|
|-3-1-----1---------3-(3)--|--------8-----------12p10-----------|
|-----3-----3-----0----0---|----9-------------------------------|
|---------------3----------|-/7---------------------------------|
|--------------------------|------------------------------------|
|-------------1------------|------------------------------------|
|--------------------------|------------------------------------|


  Dsus2                            Csus2
   Q.    Q   S  S  H      +E   E    Q.      Q      E    H.
|-14----14--12p10-12-----(12)-14-|-14b15---14b15r=12---10-----|
|





Comments


Popular Pagans Mind tabs & chords
Aegan Shores 2 Bass Tabs
Approaching Bass Tabs
Back To The Magic Of Childhood Exploring Life Part 2 Bass Tabs
Through Osiris' Eyes Bass Tabs
Walk Away In Silence Bass Tabs
Approaching Tabs
Hallo Spaceboy Tabs
Resurrection (Back In Time) Tabs
Search For Life Intro Tabs
United Alliance Tabs


Song lyrics



↑ Back to top | Tablatures and chords are parodies/interpretations of the original songs. You may use it for private study, scholarship, research or language learning purposes only
© 2014 AZChords.com Contact us | Privacy policy | DMCA | Add/correct tabs | Request tabs | Top 50 tabs