>
 >
Mariachi

Mariachi Guitar Tabs

Paco De Lucia - Mariachi chords, tabs, tablatures, lyrics

Guitar lessons | Add/correct | Request | Top 50 tabs Artists:  A B C D E F G H I J K L M N O P Q R S T U V W X Y Z 0-9

Mariachi Guitar Tabs – Paco De Lucia

CD, Sheet music, Poster

Do you like Mariachi? Share with your friends now
Tabs
E||--0--0-0----5--5--------|--5--5-5----9--9--------||---9h-0--0--0--1----1----|
B||------------------------|------------------------||---------------1----1----|
G||------------------------|------------------------||*--------------2----2----|
D||------------------------|------------------------||*--------------3----3----|
A||----------0-------------|----------0-------------||---------------3----3----|
E||------------------------|------------------------||---------------1----1----|


                                                                              
----------1----1--1--|--5----5------------|------0-2-3-4-4-4-4-4-4-4-4-4-2-2-|
----------1----1--1--|--2----2------------|--2-3-----------------------------|
----------2----2--2--|--2----2------------|----------------------------------|
----------3----3--3--|--2----2------------|----------------------------------|
----------3----3--3--|--------------------|------------2-----------2---------|
----------1----1--1--|--------------------|------------------0-----------0---|


                                                                      
--2-0-0-0-0-0-0-0-0-0-0-0-0-0-0-0-|--0-0-0-0-0-0---------------------|
----------------------------------|--------------3-3-3-2-2-2-0-0-0-2-|
----------------------------------|----------------------------------|
----------------------------------|----------------------------------|
----0-----------0-----------2-----|--------2-----------0-----------0-|
----------0-----------0-----------|--0-----------0-----------0-------|


                                                        
------------------------0-----|------0--0-0----5--5----|
--2-2-0-0-0-2-2-2-0-0-0-2-----|------------------------|
------------------------2-----|------------------------|
------------------------2-----|------------------------|
------------0-----------0-----|--------------0---------|
------0-----------0-----------|------------------------|


                                                                   
--5--5-5/-9--9-9-9-9-9-9-9-9-9-|--9-9-9-9-9-9-9-9-9-9-9-9-9-9-9-9-|
-------------------------------|----------------------------------|
-------------------------------|----------------------------------|
-------------------------------|----------------------------------|
-------------0-----------7-----|--0-----------7-----0-----------7-|
-------------------9-----------|--------9-----------------9-------|


                                                                     
--9-9-9---------------||--0--------5---------|--5---------5---------|
----------------------||-----------7----7----|--7----7----7----7----|
---------------------*||-----------7---------|----------------------|
---------------------*||-----------0---------|--0---------0---------|
------0---------------||---------------------|----------------------|
----------------------||---------------------|----------------------|


                                                        
--5-----------------|--5-5-5-5-5-5-5-5-5-5-5-5-5-5-5-5-|
--7--------7--------|--7-7-7-7-7-7-7-7-7-7-7-7-7-7-7-7-|
--------------------|----------------------------------|
--0-----------------|--0-0-0-0-0-0-0-0-0-0-0-0-0-0-0-0-|
--------------------|----------------------------------|
--------------------|----------------------------------|


                  D                                                   
--5-5-5-5-5-5-5-5-2-2-2-2-2-2-2-2-|--2-2-2-2-2-2-2-2-2-2-2-2-2-2-2-2-|
--7-7-7-7-7-7-7-7-3-3-3-3-3-3-3-3-|--3-3-3-3-3-3-3-3-3-3-3-3-3-3-3-3-|
------------------2-2-2-2-2-2-2-2-|--2-2-2-2-2-2-2-2-2-2-2-2-2-2-2-2-|
--0-0-0-0-0-0-0-0-0-0-0-0-0-0-0-0-|--0-0-0-0-0-0-0-0-0-0-0-0-0-0-0-0-|
----------------------------------|----------------------------------|
----------------------------------|----------------------------------|


                                                        
--2-2-2-2-2-2-2-2-2-2-2-2-2-2-2-2-|--2----2------------|
--3-3-3-3-3-3-3-3-3-3-3-3-3-3-3-3-|--3----3------------|
--2-2-2-2-2-2-2-2-2-2-2-2-2-2-2-2-|--2----2------------|
--0-0-0-0-0-0-0-0-0-0-0-0-4-4-4-4-|--4----2------------|
--------------------------5-5-5-5-|--5----5------------|
--0-0-0-0-0-0-0-0-0-0-0-0-2-2-2-2-|--2----2------------|


                                                              
--0-0-0-4--4-4-2-0-2--0-0-0-0-4-|---4-4-2-0-2--0-0-0-0-1-----|
--------3----------2----------3-|-----------2----------3-----|
--------4----------2----------4-|-----------2----------2-----|
--------2----------2----------2-|-----------2----------3-----|
-------------------0------------|-----------0----------------|
--------------------------------|----------------------------|


                                            
----------------0------|-------------------|
----3--3--3--3--2------|--2----------------|
----------------2------|-------------------|
----------------2------|-------------------|
----------------0------|-------------------|
-----------------------|-------------------|


                                                                        
|-------0-2-3-4-4-4-4-4-4-4-4-4-2-2-|--2-0-0-0-0-0-0-0-0-0-0-0-0-0-0-0-|
|---2-3-----------------------------|----------------------------------|
|*----------------------------------|----------------------------------|
|*----------------------------------|----------------------------------|
|-------------2-----------2---------|----0-----------0-----------2-----|
|-------------------0-----------0---|----------0-----------0-----------|


                                                                    
--0-0-0-0-0-0---------------------|------------------------0------||
--------------3-3-3-2-2-2-0-0-0-2-|--2-2-0-0-0-2-2-2-0-0-0-2------||
----------------------------------|------------------------2-----*||
----------------------------------|------------------------2-----*||
--------2-----------0-----------0-|------------0-----------0------||
--0-----------0-----------0-------|------0-----------0------------||


                                                                      
------0-2-3-4-4-4-2-2-2-4-4-4-2-2-|--2-0-0-0-------0-0-0-------0-0-0-|
--2-3-----------------------------|----------2-2-2-------2-2-2-------|
----------------------------------|----------------------------------|
----------------------------------|----------------------------------|
------------2-----------2---------|----0-----------0-----------2-----|
------------------0-----------0---|----------0-----------0-----------|


                                                                  
--------0-0-0---------------------|------------------------0-----|
--3-3-3-------3-3-3-2-2-2-0-0-0-2-|--2-2-0-0-0-2-2-2-0-0-0-2-----|
----------------------------------|------------------------2-----|
----------------------------------|------------------------2-----|
--------2-----------0-----------0-|------------0-----------0-----|
--0-----------0-----------0-------|------0-----------0-----------|


      E        C#m/5+                    
------0--------5----|------------------||
------0--------2----|------------------||
------1--------2----|------------------||
------2--------2----|------------------||
------2-------------|------------------||
------0-------------|------------------||
 
 
 
 
 
 
 





Comments


Popular Paco De Lucia tabs & chords
Cepa Andaluza Tabs
Cueva Del Gato Tabs
El Tempul Tabs
Entre Dos Aguas Tabs
Entre Dos Aguas 1 Tabs
Guajiras De Lucia Tabs
Mi Inspiration Tabs
Punta Umbria Tabs
Rio Anchp Tabs
Zarda De Monty Tabs


Song lyrics



↑ Back to top | Tablatures and chords are parodies/interpretations of the original songs. You may use it for private study, scholarship, research or language learning purposes only
© 2014 AZChords.com Contact us | Privacy policy | DMCA | Add/correct tabs | Request tabs | Top 50 tabs