>
 >
La Barrosa

La Barrosa Guitar Tabs

Paco De Lucia - La Barrosa chords, tabs, tablatures, lyrics

Guitar lessons | Add/correct | Request | Top 50 tabs Artists:  A B C D E F G H I J K L M N O P Q R S T U V W X Y Z 0-9

La Barrosa Guitar Tabs – Paco De Lucia

CD, Sheet music, Poster

Do you like La Barrosa? Share with your friends now
Tabs

(Capo 2nd Fret)
                                                     
E||---------5--4/-9--10-------|--------10--9--9h--5-|
B||------7---------------9----|---------------7-----|
G||*--7-----------------------|---------------7-----|
D||*--------------------------|---------------0-----|
A||---------------------------|---------------------|
E||----------------------0----|---------------------|


                                                
--------------------0--2--4--|----------------||
-----------------------------|----------2-----||
-----------------7-----------|----------2----*||
-----4--6--4--6--------------|----------2----*||
-----------------------------|----------0-----||
--0--------------------------|----------------||


                                                                
------------0-1-6-5h4-2-|--0---0----------|----0---------------|
----------3-------3-----|----3------------|--3---3-2-3------3--|
------2-3---------4-----|-----------------|--------------------|
------------------------|-----------------|--------------------|
----0-------------------|-----------------|--------------------|
------------------------|-----------------|--------------------|


                                                                      
-------------------|--5-5-5-5-5-4-4-4-4-4-5--4h-|--2--0h-0--2--5--4h-|
--2-3-2-1-2--------|--2-2-2-2-2-2-2-2-2-2-2--2--|--------------2--2--|
-------------------|--2-2-2-2-2-2-2-2-2-2-2--2--|--------------2--2--|
-------------------|--2-2-2-2-2-2-2-2-2-2-2-----|--------------2-----|
-------------------|--0-0-0-0-0-0-0-0-0-0-0-----|--------------------|
-------------------|----------------------------|--------------------|


                                            
--2--0-----------2-2-2-|--2--2-----2----2--|
--------3--3h-2--3-3-3-|--3--3h-2--3----3--|
-----------------2-2-2-|--2--2-----2----2--|
-----------------4-4-4-|--4--4-------------|
-----------------2-2-2-|--2--2-------------|
-----------------------|-------------------|


                                                                      
--0-0-0-0-0-0-0-0-0-0-0--0--|----0--0--0-----4--|--0--1-----2--0-----|
--6-6-6-6-6-5-5-5-5-5-6--6--|----6-----6-----6--|-----3-----3-----3--|
--7-7-7-7-7-7-7-7-7-7-7--7--|----7-----7-----7--|-----1-----1--------|
--6-6-6-6-6-6-6-6-6-6-6--6--|----6-----6--x--6--|--------x-----------|
----------------------------|-------------------|--------------------|
----------------------------|-------------------|--------------------|


                                                                 
--------------0--|--5-5-5-5-5-4-4-4-4-4-5--4--|----0------9h-7--|
--2------2----2--|--2-2-2-2-2-2-2-2-2-2-2--2--|-----------7-----|
--2------2----2--|--2-2-2-2-2-2-2-2-2-2-2--2--|-----------8-----|
-----------------|--2-2-2-2-2-2-2-2-2-2-2-----|-----------9-----|
--0------0-------|--0-0-0-0-0-0-0-0-0-0-0-----|-----------------|
-----------------|----------------------------|-----------------|


                                             
--5--4--9---------2-2---|-------------0--0--|
--------7-7-7-7---3-3---|-------------------|
--------8-8-8-8-2-----1-|-------------------|
------------9-----------|--4----------------|
------------------------|-------------------|
------------------------|-------------------|


                                                        
--------4-----------2--4-----|-------2-----------0---2-|
-----2-----------0-----------|----0--------------------|
-----------------------------|----------------2--------|
--4-----------1-----------2--|-------------------------|
-----------4-----------------|----------2--4-----------|
-----------------------------|-------------------------|


                                              
--------0--------------0--5--|----------x----|
-----3--------------3-----5--|---------------|
-----------------1--------6--|---------------|
--0-----------------------7--|---------------|
-----------0--2-----------7--|---------------|
--------------------------5--|---------------|


                                                        
--------0-2-4-5-4-2-0-4-5-|--7-0-9-7-5-0-7-9-10-0-9-10-|
--0-2-3-------------------|----------------------------|
--------------------------|----------------------------|
--------------------------|----------------------------|
--------------------------|----------------------------|
--------------------------|----------------------------|


                                              
--14-12-10-9-7-5-4-2-0-------|---------------|
-----------------------3-2-0-|---------------|
-----------------------------|--2------------|
-----------------------------|---------------|
-----------------------------|---------------|
-----------------------------|---------------|


                                                          
--10-5-1-9-12h9-10----10--|----9-10-12-13-12-9-12h10-10--|
----------------10----10--|------------------------------|
----------------11----11--|------------------------------|
--0-------------0---------|------------------------------|
--------------------------|------------------------------|
--------------------------|------------------------------|


                                                        
----9--10--10-12-10-10--7--|--10-9-9----9--9--9--9-----|
---------------------------|------------10-10-10-10----|
---------------------------|------------9--9--9--9-----|
---------------------------|------------11-11-11-11----|
---------------------------|------------9--9--9--9-----|
---------------------------|---------------------------|


                                            
----5-7-8-10-9-5-7-9-7--|--5--4----------0-|
------------------------|--------------0-0-|
------------------------|--------------1---|
------------------------|--------------2---|
------------------------|------------------|
------------------------|------------------|


                                                   
------0-------0-------0---|------0----------------|
----0-0-----0-0-----0-0---|------2---------2------|
----1-------1-1-----1-1---|----2-2-------2--------|
--0---------0-------0-----|----2-------2-----4----|
--------4-3-----4h2-----2h|--0-----0h4------------|
--------------------------|-----------------------|


                                                                  
-----0-0-0-0--0--0--0--|-----2--0--------0--|--------------------|
-----0-0-0-0--2--3--2--|-----3-----3-----3h-|--2--0--------------|
-----1-1-1-1--1--1--1h-|--2--1-----1-----1--|-----1--2--2--1--2--|
--x--0-0-0-0--0--0-----|-----------0--x--0--|-----0--0--2--0--2--|
-----2-2-2-------------|--------------------|--------2--2--2--0--|
-----0-0-0-------------|--------------------|--------0-----0-----|


                                                                      
--------------|-----------------0--5--4--2--|--0----5h-4--5----4--2--|
--------------|-----------0--2--------------|-------3----------------|
--------------|--------2--------------------|-------2----------------|
--------------|-----2-----------------------|------------------------|
--------------|--0--------------------------|-------2----------------|
--------------|-----------------------------|------------------------|


                                             
--0----3h-2--4----2--0--|-------------3--3--|
-------1----------------|--3----------3--3--|
-------0----------------|--3-------------3--|
------------------------|--4----------------|
-------0----------------|--5----------------|
------------------------|-------------------|


                                                        
--------------0--1/-5--10--8--|--7----10h-9--10--------|
-----------3------------------|--------------7-----13--|
--------3---------------------|------------------------|
--0--3------------------------|------------------------|
------------------------------|------------------------|
------------------------------|------------------------|


                                                                      
--7----9--7--10h-9--9h7-|--5-----------5----|--7--1--5--8h-7--1------|
-------5----------------|--------------2----|------------------------|
------------------------|-----------2-------|------------------------|
------------------------|--------2----------|--0---------------------|
------------------------|-----4-------------|------------------------|
------------------------|-------------------|------------------------|


                                                        
--------1--0--3--1-------|-----------0--1--3--8/-7--7--|
-----1--------------0----|--0--1--3--------------------|
-------------------------|-----------------------------|
--0----------------------|--3--------------------------|
-------------------------|--2--------------------------|
-------------------------|--3--------------------------|


                                                  
--------0-0-0-0----|-----------------0--5--4--2--|
--------1-1-1-1----|-----------0--2--------------|
--------0-0-0-0----|--------2--------------------|
--------2-2-2-2----|-----2-----------------------|
--------3-3-3-3----|--0--------------------------|
-------------------|-----------------------------|


                                                   
--0----5h-4--5----4--2--|--0----3h-2--5--2-5h2-0--|
-------3----------------|-------1-----------------|
-------2----------------|-------0-----------------|
------------------------|-------------------------|
-------2----------------|-------0-----------------|
------------------------|-------------------------|


                                                  
-----------------0----|-----------------1--0h----|
--3------------3-3----|-----------2h-3---------3-|
-------------2---2----|--------1-----------------|
-----------0-----0----|-----3--------------------|
---------0-------0----|--------------------------|
-------2---------2----|--0-----------------------|


                                                      
-----------------0--------|--------------------------|
--------------2-----3h--2-|-----------0--2--3--2h--0-|
-----0--1--2--------------|--------1-----------------|
--------------------------|-----3--------------------|
--0-----------------------|--------------------------|
--------------------------|--0-----------------------|


                                                        
--------0----------------|-----------------1--0--------|
-----2--2-----------2----|-----------2h-3--------3-----|
-----2--2-----------2----|--------1--------------------|
-----2--------------2----|-----3-----------------------|
--0--------4--0--4-------|--------------------------0--|
-------------------------|--0--------------------------|


                                                        
----------------0--------|-----------------------------|
-------------2-----3h--2-|-----------------0--3h-2--0--|
----0--1--2--------------|--------------1--------------|
-------------------------|--------0--4-----------------|
-------------------------|-----2-----------------------|
-------------------------|--4--------------------------|


                                                              
-------------------------|--0----2----4----|-------0----2----|
--------2-----------2----|-------3----5----|--3---------3----|
-----2--2-----------2----|-------2----4----|------------2----|
-----2-----2-----2-------|--2----4----6----|--0----2----4----|
--0-----------4----------|-------2----4----|------------2----|
-------------------------|-----------------|-----------------|


                                                                
-----0---------------|--0------------|----0-------0--------0---|
---------------------|--2------------|----2-------2--------2---|
-----------1---------|--2------------|------2-------2------2---|
--2-----0--0---------|--2------------|--2-----2h4-----4h6--6-4-|
-----------4----2----|--0------------|-------------------------|
---------------------|---------------|-------------------------|


                                                                      
-------0------0----0---|-------0---0-------0-----|-------------------|
-------2------2----2---|-------2---2-------2-----|-----0--------0----|
----------------1--2---|-------------2-------2---|-------------------|
--2--2---4--4------6-4-|--2--2---4-----4h2-----2h|--0--------0--2----|
-----------------------|-------------------------|-------------------|
-----------------------|-------------------------|--------4----------|


                                              
----0-------0-----0-----|-----0--------0-----|
----4-0-----4-0---4-----|-----4--------4-----|
----------1-----1-4--1--|-----4-----1--4--1--|
--4-----4---------7-----|--4--6--4-----7-----|
------------------------|--------------------|
------------------------|--------------------|


                                                                    
----------4-------2---2/|--1------------|----4-------4-----4-------|
----------5-0-----3---3/|--2------------|----6-0-----6-0---6-------|
-----2--1-----1-----2-2/|--1------------|--1-----1h2-----2-4-2-1---|
--4-------------4-----4/|--3------------|------------------------4-|
------------------------|---------------|--------------------------|
------------------------|---------------|--------------------------|


                                                      
------------------4-------|--4-------4---------------|
------------------6-------|--6-------6---------------|
--------------1-2-4-1-----|--4-------4---------------|
--3-0---0-4-5---------4-4-|--3-4-0-0-----------------|
------4-------------------|----------4-4h2-2-0-0-----|
--------------------------|----------------------4-4-|


                                                                      
-----2--------2----|-----5-4-2--1--2--4--5--7--|--4-7h4-2h-0----0----|
-----2--------2----|--2------------------------|----------------0----|
-----2--------2----|--2------------------------|---------------------|
--------------4----|--2------------------------|----------------2----|
--------0--4-------|--4------------------------|----------------2----|
--2----------------|---------------------------|----------------4----|


                                                                    
-----4-2-0---0-2-4-5-2--|---5-2-0-----------|----------------0--0--|
--0--------4------------|---------3----3----|----------------0--0--|
------------------------|--------------2----|----------1-----1--1--|
------------------------|--------------0----|----0-2-4---4-0-2-----|
------------------------|--------------0----|----------------------|
------------------------|--------------2----|----------------------|


                                                                    
----------------2--2/-|--------------------|-----------------------|
----------------3--3/-|--------------------|------2---------2------|
----------------2--2/-|--------------------|----2-2-------2--------|
------0-2-4-2---4--4/-|--------------0-----|----2-------2-----4----|
----4---------4-5--5/-|--------0-2-4---4-2h|--0-----0h4------------|
----------------------|--------------------|-----------------------|


                                                                     
-----2-2-2-2-2-2-2-2-2-2-2-2-2-2-2-|--2-2-2-2-2-2-2-2-2-2-2-2-2--0--|
-----3-3-3-3-3-3-3-3-3-3-3-3-3-3-3-|--3-3-3-3-3-3-3-3-3-3-3-3-3--3--|
-----1-1-1-1-1-1-1-1-1-1-1-1-1-1-1-|--1-1-1-1-1-1-1-1-1-1-1-1-1--1--|
--x--0-0-0-0-0-0-0-0-0-0-0-0-0-0-0-|--------------------------------|
-----2-2-2-2-2-2-2-2-2-2-2-2-2-2-2-|--------------------------------|
-----0-0-0-0-0-0-0-0-0-0-0-0-0-0-0-|--------------------------------|


                                                            
--2--0--2--5----5--|-------------0--|----0-0-0-0--0--0--0--|
--3--3--3--5----5--|-------------2--|----2-2-2-2--2--0--0--|
--1--1--1--7----6--|-------------2--|----2-2-2-2--2--1--1--|
--0--0--0--6----7--|----------2--2--|----2-2-2-2--4--0--0--|
--2--2--2--5----7--|----------0-----|----------------2-----|
-----------7----5--|----------------|----------------------|


                                                            
----0-----0-----0--|-----0----------0-0-0-|--0--0----------|
----2h-0--2-----3h-|--2--0----------2-2-2-|--2--2----------|
----------1-----1--|-----1--2----1--2-2-2-|--2--2----------|
----4-----0--x--0--|-----0--0-------2-2-2-|--2--2----------|
----5--------------|--------2-------0-0-0-|--0--0----------|
-------------------|--------0-------------|----------------|


                                                                  
-----7-7-7-7--7--7-----|-------------5-5-5-|--5--5--5------------|
-----8-8-8-8--7--8--7--|-------------6-6-6-|--6--5--6------------|
-----9-9-9-9--9--9--7--|-------------5-5-5-|--5--5--5--------0---|
--x--7-7-7-7--7--7--7--|----------x--7-7-7-|--7--7--7----2-3---3-|
-----7-7-7-7--7--7--9--|-------------6-6-6-|--6--6--6------------|
-----9-9-9-9--9--9--8--|-------------------|---------------------|


                                                                      
---------------|----------2---0-2-0-4-2-0-|--5-4-2-0-2-4-5-7-5-4-----|
---------------|--0-2-3-5---3-------------|----------------------7-5-|
---------------|--------------------------|--------------------------|
--2------------|--------------------------|--------------------------|
---------------|--------------------------|--------------------------|
--0------------|--------------------------|--------------------------|


                                           
--------------------------|---------------|
--------------------------|---------------|
--7-6-4-------------------|---------------|
--------7-6-4-------------|---------------|
--------------7-5-4-------|---------------|
--------------------7-5-4-|--5------------|


                                                            
--7--6--7--4--5h-2--2h-1-----|-----1--9--7--5h-2--2h-1-----|
--3-----------------------3--|-----------3--------------3--|
-----------------------------|-----------------------------|
-----------------------------|-----------------------------|
-----------------------------|--4--------------------------|
-----------------------------|-----------------------------|


                                                  
-----------------------4--2--|--0-2-0------------|
--------2--3--2--1--2--------|--2-------4--------|
-----1-----------------------|--0-------5--------|
-----------------------------|----------4--------|
--4--------------------------|--0-------0--------|
-----------------------------|-------------------|


                                                
-----0--4--2h-0-----0----|-------0-------------|
--4--------------4--2----|--4----0--4-----3----|
--5----------------------|----------------1----|
--4-----------------4----|----------------3----|
--0-----------------0----|---------------------|
-------------------------|-------------0-------|


                                             
---------------1-0-------0-|----------------|
-----------2-3-----3-2-2---|--3----2--------|
--------1------------------|-------0--------|
-----3---------------------|-------2--------|
---------------------------|-------0--------|
--0------------------------|----------------|


                                                            
--------0--------------------|--------0--------------------|
--1--2-----3--2--3--2--2-----|--1--2-----3--2--1--2-----0--|
--0-----------------------1--|-----------------------2-----|
-----------------------------|-----------------------------|
--0--------------------------|-----------------------------|
-----------------------------|-----------------------------|


                                                        
-----------------------------|--------------0--0/-2----|
-----------------------------|-----------3-------------|
--0--2-----0-----------------|--------2----------------|
--------4-----2--4--0--2-----|--0--4-------------------|
--------------------------4--|-------------------------|
-----------------------------|-------------------------|


                                                           
----2--------2--4--5--4--7--|-----------0h-2--4--4/-2--0--|
-------3--------------------|--------3--------------------|
----------2-----------------|-----1-----------------------|
----------------------------|-----------------------------|
----------------------------|-----------------------------|
----------------------------|--0--------------------------|


                                                           
-----------------0--1--0-----|----------------------------|
-----------2--3-----------3--|--------0--3--1--2----------|
--------1--------------------|-----0----------------------|
-----3-----------------------|----------------------------|
-----------------------------|--0-------------------0--4--|
--0--------------------------|----------------------------|


                                                                  
--------------0--3--6--10--14--|--12--10--9--5--0--5--9--12--12--|
-----------2-------------------|---------------------------------|
-----0--3----------------------|---------------------------------|
--2----------------------------|---------------------------------|
-------------------------------|---------------------------------|
-------------------------------|---------------------------------|


                                                           
--10--9--7--4-----4--7--10--10--|--9--7--5-----------5----|
---------------3----------------|--------------------5----|
--------------------------------|-----------------2-------|
--------------------------------|--------------2----------|
--------------------------------|-----------4-------------|
--------------------------------|-------------------------|


                                                            
--5--0--5--3-----1-----------|-----------------------------|
--------------3-----------1--|--3--1-----4--0-----3--2--2--|
-----------------------------|-----------------------------|
-----------------------3-----|--------3--------3-----------|
--4--4-----2--0-----0--------|-----------------------------|
-----------------------------|-----------------------------|


                                                   
---------------------------|-----0--------0----2--|
--2-----1--1-----1--0----0-|-----2--------2----3--|
-----2--------2--------1---|-----2--------2----1--|
---------------------------|-----------2-------0--|
---------------------------|--0-----4----------2--|
--2--2-----2--------0------|----------------------|


                                                                  
--2-2-2-2-2-2-2-2-2-2-2-2-2---2-|--2-2-2-2-2-2-2-2-2-2-2-2-2--0--|
--3-3-3-3-3-3-3-3-3-3-3-3-3---3-|--3-3-3-3-3-3---3-3-3-3-3-3--3--|
--1-1-1-1-1-1-1-1-1-1-1-1-1---1-|--1-1-1-1-1-1-1-1-1-1-1-1-1--1--|
--0-0-0-0-0-0-0-0-0-0-0-0-0---0-|--0-0-0-0-0-0-0-0-0-0-0-0-0--0--|
--2-2-2-2-2-2-2-2-2-2-2-2-2---2-|--2-2-2-2-2-2-2-2-2-2-2-2-2--2--|
--------------------------------|--------------------------------|


                                                              
--2--0--2----5----|--5----0-------0--|-----0-0-0-0--0-----0--|
-----3-------5----|--5---------2--2--|-----2-2-2-2--2-----2--|
-----1-------7----|--6---------2--2--|-----2-2-2-2--2-----1--|
-----0-------6----|--7---------2-----|-----2-2-2-2--4--x--0--|
-----2-------5----|--7---------0-----|--0-----------------2--|
-------------7----|--5---------------|-----------------------|


                                                            
-----0-----0-----0--|-----0----------0-0-0-|--0------------|
--0--0h-2--2-----3--|--2--0----------2-2-2-|--2------------|
-----1-----1-----1--|-----1--2h---1--2-2-2-|--2------------|
-----0-----0--x--0--|-----0--0-------2-2-2-|--2------------|
-----2-----2-----2--|-----2--2-------0-0-0-|--0------------|
--------------------|--------0-------------|---------------|


                                                                
-----------------------|-------------------|-------------------|
---2-------2--------2--|-------------------|-------------------|
---2-------2--------2--|----------------2--|-------------------|
-----2-------2------2--|----------------2--|--------------3----|
-------0-2-----2h4--4--|--2--0--2--4----4--|--2--0--2--4--5----|
-----------------------|-------------------|--------------0----|


                                                              
-----------------|----------------------|--------------------|
-----------------|----------------------|--------------------|
-----------------|-------------------2--|-----------------2--|
----3------------|-------------------3--|-----------------3--|
----5--4--2------|----0-2-0----0--2--2--|--0--------0--2--2h-|
-----------------|----------4-----------|-----4--4-----------|


                                                                
-------------------|----------------0--|-----------------------|
-------------------|----------------2--|---2-------2-----------|
-------------------|----------------2--|---2-------2-----------|
-------------------|-------------------|-----2-------2------3--|
--0-----0--2--3----|----0--------------|-------0-2-----2-4-----|
-----4--------1----|-------4--2--2-----|-----------------------|


                                                       
----------------1--|--2--4--5------4--|--5~-----------|
-----0--1----2-----|------------------|--7~-----------|
--1----------------|------------------|--6~-----------|
--------4----------|------------------|--0~-----------|
--------0----4-----|------------------|---------------|
-------------------|------------------|---------------|


                                                         
----4--5--4--3----|----------------|-----0--2----1--4-2-|
-------------2----|----------2--3--|--3-----1-------2---|
-------------2----|----------0-----|--------1-------2---|
-------------2----|----------------|--------0-------0---|
-------------4----|----------0-----|--------------------|
-------------0----|----------------|--------------------|


                                                         
----2----2----2--|----4------4h-2--|--0-----0--5--4h-2--|
----2----2----2--|----3------3-----|-----3--------3-----|
----2----2----2--|----2------2-----|--------------2-----|
----0----0----0--|----0------0-----|--------------0-----|
-----------------|-----------------|--------------------|
-----------------|-----------------|--------------------|


                                               
--0-----0-2-4-4-4-4-4-4-|--4-2-1-----------1--|
-----3------------------|--------3-2--2----2--|
------------------------|-------------1----1--|
------------------------|-------------0-------|
------------------------|-------------4-------|
------------------------|---------------------|


                                              
------0-----0-----------|-----0----0--0----0-|
----2-2---2-2-----------|-----3----3--0--0-0-|
----3-2---2-------------|-----4----4--1--1-1-|
----4---4-----4-4-2-0---|-----4----4-----2---|
----------------------4-|--2-----------------|
------------------------|--------------------|


                                                   
------0---------0---------|------0----------------|
----0-0-------0-----------|------2-------2--------|
----1-------1-------------|----2-2-----2-2--------|
--2-----4h2-------2-0-----|----2-------2----------|
----------------------4-2-|--0-----0-4-----3-4----|
--------------------------|-----------------------|


                                                                
-------------------|-----------------0--|----0-0-0-0-----------|
--2--------0-------|--0--------1-----0--|----0-0-0-0-----------|
--4--------5-------|--4--------2-----1--|----1-1-1-1-----------|
--6--------5-------|--4--------3-----0--|----0-0-0-0-----------|
-----3--3-----2----|-----------------2--|----2-2-2-2--------0--|
-------------------|-----1--1-----0-----|-------------2--4-----|


                                                              
-------------0--|-----0-0-0-0-----0--0--|-----0-----0-----0--|
----------2--2--|-----2-2-2-2-----0--2h-|--0--2--0--2-----3h-|
----------2--2--|-----2-2-2-2-----1--1--|-----1-----1-----1--|
----------2--2--|-----2-2-2-2--4--0-----|--------------x--0--|
----------0--0--|--0--------------2-----|--------------------|
----------------|-----------------0-----|--------------------|


                                                                     
-----0----------0-0-0-|--0------------|--5--4--2--7--5--5--5-4-2-0--|
--2--0----------2-2-2-|--2------------|--3--------------------------|
-----1--2----1--2-2-2-|--2------------|--2--------------------------|
-----0--0-------2-2-2-|--2------------|-----------------------------|
--------2-------0-0-0-|--0------------|--2-----------------0--------|
--------0-------------|---------------|-----------------------------|


                                                           
----------0--2--4--5--4--2--|--7--5--4--9/-7--5--5--4--7--|
----2--3--------------------|-----------------------------|
----------------------------|-----------------------------|
----------------------------|-----------------------------|





Comments


Popular Paco De Lucia tabs & chords
Entre Dos Aguas Tabs
Entre Dos Aguas Part 3 Tabs
Guajiras De Lucia Tabs
Guarjiras De Lucia Intro Tabs
Mariachi Tabs
Mediterranean Sundance Rio Ancho Tabs
Mi Inspiration Tabs
Panaderos Flamencos Tabs
Punta Umbria Tabs
Tico Tico Tabs


Song lyrics



↑ Back to top | Tablatures and chords are parodies/interpretations of the original songs. You may use it for private study, scholarship, research or language learning purposes only
© 2014 AZChords.com Contact us | Privacy policy | DMCA | Add/correct tabs | Request tabs | Top 50 tabs