>
 >
Panaderos Flamencos

Panaderos Flamencos Guitar Tabs

Paco De Lucia - Panaderos Flamencos chords, tabs, tablatures, lyrics

Guitar lessons | Add/correct | Request | Top 50 tabs Artists:  A B C D E F G H I J K L M N O P Q R S T U V W X Y Z 0-9

Panaderos Flamencos Guitar Tabs – Paco De Lucia

CD, Sheet music, Poster

Do you like Panaderos Flamencos? Share with your friends now
Tabs

(Capo 4th Fret)

                                                                      
E||---5--5-5-5--5--------|--5--5-5-5--5--7--7--|--5--5-5-5--5--------|
B||---5--5-5-5--5--3--5--|--5--5-5-5--5--7--9--|--5--5-5-5--5--3--5--|
G||*--6--6-6-6--6--2--4--|--6--6-6-6--6--8--7--|--6--6-6-6--6--2--4--|
D||*--7--7-7-7--7--4--6--|--7--7-7-7--7--9--6--|--7--7-7-7--7--4--6--|
A||---7--7-7-7--7--5--7--|--7--7-7-7--7--9--7--|--7--7-7-7--7--5--7--|
E||---5------------2--4--|--4------------7-----|--5------------2--4--|


                                                              
--5--5-5-5--5--7--7--|--5----5----5----|--0------0--------2--|
--5--5-5-5--5--7--9--|--5----5----5----|-------3----2--3-----|
--6--6-6-6--6--8--7--|--6----6----6----|-----6---------------|
--7--7-7-7--7--9--6--|--7----7----7----|------------------0--|
--7--7-7-7--7--9--7--|--7----7----7----|--4---------0--2-----|
--5------------7-----|--5--------------|---------------------|


                                                                             
--0------0------------2-|--0--5-4-2-0-------------|-------------------------|
-----2-3------2---3-----|-------------3-2-0-------|-----0-------------------|
------------------------|-------------------2-1---|-------2-1---------------|
--------------------0---|-----------------------4-|--2--------4-2-0---------|
--4---------0---2-------|--4----------------------|-----------------4-2-0---|
------------------------|-------------------------|-----------------------4-|


                                                                        
-----0-0-0-0-0-0-2---4-|--0--0-0-0-0-0-0-----0-|-----0-0-0-0-0-0-2---4-|
-----2-2-2-2-2-2-3-----|--2--2-2-2-2-2-2-3-----|--2--2-2-2-2-2-2-3-----|
-----2-2-2-2-2-2-------|-----2-2-2-2-2-2-1-----|--2--2-2-2-2-2-2-------|
-----2-2-2-2-2-2-0-----|-----2-2-2-2-2-2-------|-----2-2-2-2-2-2-0-----|
--0--------------------|--0--------------------|--0--------------------|
-----------------------|-----------------0-----|-----------------------|


                                                                           
--0--0-0-0-0-0-0-----0-|-----0-0-0--2-5-4-2-0---|---------------0-2-3-2-0-|
--2--2-2-2-2-2-2-3-----|--2--2-2-2------------3-|--2-0---0-2--------------|
-----2-2-2-2-2-2-1-----|--2--2-2-2--------------|------2------------------|
-----2-2-2-2-2-2-------|-----2-2-2------0-------|-------------------------|
--0--------------------|--0---------------------|-------------4-----------|
-----------------0-----|------------------------|-------------------------|


                                                                            
--2-3-2-0-2----3-7-5-3-2-|--5--4-2-0----2-5-4-2-0-|--4--2-0----5-2-0-------|
-------------------------|------------------------|---------3--------3-2-0-|
-------------------------|------------------------|------------------------|
--0----------0-----------|------------0-----------|------------------------|
-------------------------|------------------------|------------------------|
-------------------------|--0---------------------|--0---------------------|


                                                                        
-----0-0-0-0-0-0-2---4-|--0--0-0-0-0-0-0-----0-|-----0-0-0-0-0-0-2---4-|
-----2-2-2-2-2-2-3-----|--2--2-2-2-2-2-2-3-----|--2--2-2-2-2-2-2-3-----|
--2--2-2-2-2-2-2-------|-----2-2-2-2-2-2-1-----|--2--2-2-2-2-2-2-------|
-----2-2-2-2-2-2-0-----|-----2-2-2-2-2-2-------|-----2-2-2-2-2-2-0-----|
--0--------------------|--0--------------------|--0--------------------|
-----------------------|-----------------0-----|-----------------------|


                                                                            
--0--0-0-0-0-0-0-----0-|-----0-0-0--------------|----2-1-2-4-1-------------|
--2--2-2-2-2-2-2-3-----|--2--2-2-2--2-3-2-0---0-|--2-----------2-3-2-0-----|
-----2-2-2-2-2-2-1-----|--2--2-2-2----------2---|----------------------2-1-|
-----2-2-2-2-2-2-------|-----2-2-2--------------|--------------------------|
--0--------------------|--0---------------------|--------------------------|
-----------------0-----|------------------------|--------------------------|


                                                                          
-----2-2-2--2--4--4--|--2--2-2-2--------------|----4-2-4-5-4-2-0---0-4-2-|
-----2-2-2--2--6--6--|--2--2-2-2--0-2-0---0-2-|--0---------------4-------|
-----2-2-2--2--4--4--|--2--2-2-2--------3-----|--------------------------|
--4--4-4-4--4--6--6--|--4--4-4-4--------------|--------------------------|
-----4-4-4--4--4--4--|--4---------------------|--------------------------|
---------------------|--2---------------------|--------------------------|


                                                                           
--0-----0---5-4-2-0---|---------------0-2-3-2-0-|--2-3-2-0-2----3-7-5-3-2-|
--------0-----------3-|--2-0---0-2--------------|-------------------------|
----------------------|------2------------------|-------------------------|
--------------0-------|-------------------------|-------------0-----------|
----------------------|-------------4-----------|--4----------------------|
-----0----------------|-------------------------|-------------------------|


                                                                          
--5--4-2-0----2-5-4-2-0-|--4--2-0----4-2-0-------|-----0-0-0-0-0-0-2---4-|
------------------------|---------3--------3-2-0-|-----2-2-2-2-2-2-3-----|
------------------------|------------------------|--2--2-2-2-2-2-2-------|
------------0-----------|------------------------|-----2-2-2-2-2-2-0-----|
------------------------|------------------------|--0--------------------|
--0---------------------|--0---------------------|-----------------------|


                                                                          
--0--0-0-0-0-0-0-----0-|-----0-0-0-0-0-0-2---4-|--0--0-0-0-0-0-0-----0--||
--2--2-2-2-2-2-2-3-----|--2--2-2-2-2-2-2-3-----|--2--2-2-2-2-2-2-3------||
-----2-2-2-2-2-2-1-----|--2--2-2-2-2-2-2-------|-----2-2-2-2-2-2-1-----*||
-----2-2-2-2-2-2-------|-----2-2-2-2-2-2-0-----|-----2-2-2-2-2-2-------*||
--0--------------------|--0--------------------|--0---------------------||
-----------------0-----|-----------------------|-----------------0------||


                                                                        
-----0-0-0--------------|-------------1-2--1---|-----------------------|
--2--2-2-2--2-3-2-0---0-|--2-----2--3--------3-|--2-----2--2-3-2-0---0-|
--2--2-2-2----------2---|--------1-------------|--------1----------2---|
-----2-2-2--------------|--------3------0------|--------3--------------|
--0---------------------|-----4----------------|-----4-----------------|
------------------------|----------------------|-----------------------|


                                                                      
-----------2-5-4-2-0---|--------------------|--0--0---0--7-6-7-6-7-6-|
--2-----2------------3-|--2-----2--2--3--4--|--0----4----------------|
--------1--------------|--------1--1--2--3--|--1---------------------|
--------3------0-------|--------3--3--4--5--|--2---------------------|
-----4-----------------|-----4-----4--5--6--|------------------------|
-----------------------|--------------------|---------0--------------|


                                                                     
--7----------------7-6-|--7--9--------5----|-----2-2-2--1-2-4-7-5-4-|
------------7-6-7------|--------10----5----|--2--2-2-2--------------|
-----7-6-7-------------|--------------6----|--2--2-2-2--------------|
-----------------------|--------------7----|--4--4-4-4--------------|
-----------------------|--------------7----|--4--4-4-4--------------|
-----------------------|--------------5----|--2---------------------|


                                                                       
--2--2-2-2--1-2-4--1--|--2--2-2-2--1-2-4-7-5-4-|--2--2-2-2--1-2-4--1--|
-----2-2-2------------|-----2-2-2--------------|-----2-2-2------------|
-----2-2-2------------|-----2-2-2--------------|-----2-2-2------------|
-----4-4-4------------|-----4-4-4--------------|-----4-4-4------------|
-----4-4-4------------|-----4-4-4--------------|-----4-4-4------------|
----------------------|--2---------------------|----------------------|


                                                                      
--2--2-2-2--2--0-----|--0-----------2--0-----|--0-----------2--0-----|
-----2-2-2--------4--|--------------------4--|--------------------4--|
-----2-2-2--2--1-----|--1-----------2--1-----|--1-----------2--1-----|
-----4-4-4--------4--|--------------------4--|--------------------4--|
---------------------|-----------------------|-----------------------|
--2------------------|-----0-0-0-0-----------|-----0-0-0-0-----------|


                                                                              
--0-----------------------|-----------------------|--------------------------|
--------------------------|-----------------------|--------------------------|
--1-----------------------|-----------------------|--------------------------|
--------------------------|-----------------------|----0---0---0---0---0---0-|
--------------------------|-----------------------|------4---4-------4---4---|
-----0-0-0-0--0--0-0-0-0--|--0--0-0-0-0--0--0--0--|--2-----------2-----------|


                                                                                
--------------------------|-----------0-2-4-5-4-2-0-|--------------------------|
--------------------------|-----0-2-3---------------|--3-2-0-------------------|
--------------------------|-------------------------|--------2-1---------------|
----0---0---0---0---0---0-|-------------0-----------|------------4-2-0---------|
------4---4-------4---4---|-------------------------|------------------4-2-0---|
--2-----------2-----------|--2----------------------|--0---------------------4-|


                                                                        
-----0-0-0-0-0-0-2---4-|--0--0-0-0-0-0-0-----0-|-----0-0-0-0-0-0-2---4-|
-----2-2-2-2-2-2-3-----|--2--2-2-2-2-2-2-3-----|--2--2-2-2-2-2-2-3-----|
-----2-2-2-2-2-2-------|-----2-2-2-2-2-2-1-----|--2--2-2-2-2-2-2-------|
-----2-2-2-2-2-2-0-----|-----2-2-2-2-2-2-------|-----2-2-2-2-2-2-0-----|
--0--------------------|--0--------------------|--0--------------------|
-----------------------|-----------------0-----|-----------------------|


                                                                           
--0--0-0-0-0-0-0-----0-|-----0-0-0--2-5-4-2-0---|---------------0-2-3-2-0-|
--2--2-2-2-2-2-2-3-----|--2--2-2-2------------3-|--2-0---0-2--------------|
-----2-2-2-2-2-2-1-----|--2--2-2-2--------------|------2------------------|
-----2-2-2-2-2-2-------|-----2-2-2------0-------|-------------------------|
--0--------------------|--0---------------------|-------------4-----------|
-----------------0-----|------------------------|-------------------------|


                                                                            
--2-3-2-0-2----3-7-5-3-2-|--5--4-2-0----2-5-4-2-0-|--4--2-0----4-2-0-------|
-------------------------|------------------------|---------3--------3-2-0-|
-------------------------|------------------------|------------------------|
--0----------0-----------|------------0-----------|------------------------|
-------------------------|------------------------|------------------------|
-------------------------|--0---------------------|--0---------------------|


                                                                        
-----0-0-0-0-0-0-2---4-|--0--0-0-0-0-0-0-----0-|-----0-0-0-0-0-0-2---4-|
-----2-2-2-2-2-2-3-----|--2--2-2-2-2-2-2-3-----|--2--2-2-2-2-2-2-3-----|
--2--2-2-2-2-2-2-------|-----2-2-2-2-2-2-1-----|--2--2-2-2-2-2-2-------|
-----2-2-2-2-2-2-0-----|-----2-2-2-2-2-2-------|-----2-2-2-2-2-4-0-----|
--0--------------------|--0--------------------|--0--------------------|
-----------------------|-----------------0-----|-----------------------|


                                                                         
--0--0-0-0-0-0-0-----0-|-----0-0-0----0---0---0-|-------------0---0---0-|
--2--2-2-2-2-2-2-3-----|--2--2-2-2--------------|-----------------------|
-----2-2-2-2-2-2-1-----|--2--2-2-2----------2---|--------2----------0---|
-----2-2-2-2-2-2-------|-----2-2-2--------------|-----------------------|
--0--------------------|--0-------------4-------|-----4---------4-------|
-----------------0-----|------------0-----------|--0--------0-----------|


                                                                        
-------------0---0---0-|--------0----0---0---0-|--------0----0---0---0-|
-----------------------|-----------------------|-----------------------|
--------1----------1---|--------1----------1---|--------2----------2---|
-----0---------0-------|-----0---------0-------|-----------------------|
-----------------------|-----------------------|-----4---------4-------|
--0--------0-----------|--0--------0-----------|--0--------0-----------|


                                                                        
--------0----0---0---0-|--------0----0---0---0-|--------0----0---0---0-|
-----------------------|-----------------------|-----------------------|
--------2----------0---|--------1----------1---|--------1----------1---|
-----------------------|-----0---------0-------|-----0---------0-------|
-----4---------4-------|-----------------------|-----------------------|
--0--------0-----------|--0--------0-----------|--0--------0-----------|


                                                                              
-------------0---0---0-|----0---0---0---0---0---0-|----0---0---0---0---0---0-|
-----------------------|--------------------------|--------------------------|
--------2----------2---|----------2-----------0---|----------1-----------1---|
-----------------------|--------------------------|------0-----------0-------|
-----4---------4-------|------4-----------4-------|--------------------------|
--0--------0-----------|--0-----------0-----------|--0-----------0-----------|


                                                      
----0---0---0---0---0---0-|----0---0---0---0---0---0-|
--------------------------|--------------------------|
----------1-----------1---|----------2-----------2---|
------0-----------0-------|--------------------------|
--------------------------|------4-----------4-------|
--0-----------0-----------|--0-----------0-----------|


                                                                             
----0---0---0---0---0---0-|-------0--------0-2-4-|--2-0---------------------|
--------------------------|----------0-2-3-------|------3-2-0---------------|
----------2---0-----------|----------------------|------------2-1-----------|
------------------4---2---|--0-------------------|----------------4-2-0-----|
------4-------------------|----------------------|----------------------4-2-|
--0-----------------------|----------------------|--------------------------|


                                    
-------2------0--|----0--0--------||
-------3------2--|----0--2--------||
-------2------2--|----7--2--------||
-------0------2--|----6-----------||
--0-----------0--|----7--0--------||
-----------------|----0-----------||





Comments


Popular Paco De Lucia tabs & chords
Almoraima Tabs
El Inclusero Tabs
El Tempul Tabs
El Vito Tabs
Entre Dos Aguas 1 Tabs
Entre Dos Aguas Part 3 Tabs
Guajiras De Lucia Tabs
Mediterranean Sundance Rio Ancho Tabs
Rio Anchp Tabs
Tico Tico Tabs


Song lyrics



↑ Back to top | Tablatures and chords are parodies/interpretations of the original songs. You may use it for private study, scholarship, research or language learning purposes only
© 2014 AZChords.com Contact us | Privacy policy | DMCA | Add/correct tabs | Request tabs | Top 50 tabs