» » »

Pacifier, Semi-normal Bass tabs (ver.1)

Artists:  A B C D E F G H I J K L M N O P Q R S T U V W X Y Z # 

Semi-normal Bass tabs (ver.1)

Pacifier Tabs
Rating:
0/5 (0 votes)
Hard to play? Try these video lessons and learn fast.
                tuning: EADG

This is one of my favorite songs by Pacifier.  Saw it tabbed on here and thought it 
better like this.

main riff
G----------------------------------------------------------------|
D----------------------------------------------------------------|
A----------3-3-------3-3-----------------------------------------|
E----4-4-4-----4-4-4-----4-0-3-6---------------------------------| x4

verse

G----------------------------------------------------------------|
D----------------------------------------------------------------|
A----------------------------------------------------------------|
E----8-8-8-8-8-8-8-8-8-8-8-8-8-8-8-8-8-8-8-8-8-8-8-8-8-8-8-8-6-6-|


G----------------------------------------------------------------|
D----------------------------------------------------------------|
A----------------------------------------------------------------|
E----4-4-4-4-4-4-4-4-11-11-11-11-11-11---------------------------| x2

chorus is main riff x4
verse than chorus again

bridge

G----------------------------------------------------------------|
D----------------------------------------------------------------|
A----3-3-3-4-6-6-6-6-6-6-6-6-8-8-8-8---4-4-4---------------------|
E------------------------------------4---------------------------|


G-----------------------------------------------------------------|
D-----------------------------------------------------------------|
A-----------------------------------------------------------------|
E---8-8-8-8-8-8-8-8-8-8-8-8-8-8-8-8-8-8-8-8-8-8-8-8-8-8-8-8-8-6-6-|


G----------------------------------------------------------------|
D----------------------------------------------------------------|
A----------------------------------------------------------------|
E---4-4-4-4-4-4-4-4-11-11-11-11-11-11----------------------------|

Chorus


Echell
            

comments powered by Disqus
↑ Back to top | Pacifier Bass for Semi-Normal. Lyrics for acoustic guitar and electric guitar. Tablatures and chords are parodies/interpretations of the original songs. You may use it for private study, scholarship, research or language learning purposes only