» » »

Pacifier, Semi-Normal Tabs (ver.1)

Artists:  A B C D E F G H I J K L M N O P Q R S T U V W X Y Z # 

Semi-Normal Tabs (ver.1)

Pacifier Tabs
Rating:
0/5 (0 votes)
Semi-Normal lessons Tabs too difficult? Try these video lessons and learn fast
                Pacifier - Semi-normal
Tuning - CGCfad

intro
guitar 1
|-------8-8-8-------8-8-8-----8-8--|
|-6-6-6-------6-6-6-------6-6------|
|----------------------------------|
|----------------------------------| x4
|----------------------------------|
|----------------------------------|

guitar 2
|-----------------------------------|
|-----------------------------------|
|-----------------------------------|
|-----------------------------------| x3
|-----------------------------------|
|-8-8-8-0-0-0-8-8-8-0-0-0-8-0-8-10--|
 pm.................................

then
|--------------------------------|
|--------------------------------|
|--------------------------------|
|-----------------------------8--|
|-----------------------------8--|
|-8-8-8-0-0-0-8-8-8-0-0-0-8-0-8--|
 pm......................


chorus
|-----------------------------------|
|-----------------------------------|
|-----------------------------------|
|-8-8-8-0-0-0-8-8-8-0-0-0-8-0-8-10--|
|-8-8-8-0-0-0-8-8-8-0-0-0-8-0-8-10--|
|-8-8-8-0-0-0-8-8-8-0-0-0-8-0-8-10--|


verse
|------------------------|
|------------------------|
|-10-10-/-5-5--7--7-7-7--|
|-10-10-/-5-5--7--7-7-7--|
|-8--8--/-3-3--5--5-5-5--|
|------------------------|

|--------------------------|
|--------------------------|
|-10-10-/-5-5--8/7--7-7-7--|
|-10-10-/-5-5--8/7--7-7-7--|
|-8--8--/-3-3--6/5--5-5-5--|
|--------------------------|

|-------------------------|
|-------------------------|
|-10-10-/-5-5--7--7-7-7-/-|
|-10-10-/-5-5--7--7-7-7-/-|
|-8--8--/-3-3--5--5-5-5-/-|
|-------------------------|

|------------------------------------|
|------------------------------------|
|/-3-3-3-3-3-3-3-3-/-10-10-10-10-10--|
|/-3-3-3-3-3-3-3-3-/-10-10-10-10-10--|
|/-1-1-1-1-1-1-1-1-/-8--8--8--8--8---|
|------------------------------------|


interlude
guitar 1
|---8---8---8---8---8---8---8---8--|
|-6---6---6---6---6---6---6---6----|
|----------------------------------|
|----------------------------------|
|----------------------------------|
|----------------------------------|

guitar 2
|-----------------------------------------------------------|
|-----------------------------------------------------------|
|-7--7-7--8--10-10-10-10--12-12-12-12-12--3-3-3-3--8-8-8-8--|
|-7--7-7--8--10-10-10-10--12-12-12-12-12--3-3-3-3--8-8-8-8--|
|-5--5-5--6--8--8--8--8---10-10-10-10-10--1-1-1-1--6-6-6-6--|
|-----------------------------------------------------------|


solo
====
guitar 1 plays the verse

guitar 2
|-5-5-5-5-5-5-5-5--|
|------------------|
|------------------|
|------------------| x3
|------------------|
|------------------|

then
|-6-6-6-5-5-5-5-5--|
|------------------|
|------------------|
|------------------|
|------------------|
|------------------|


outro
guitar 1 plays the chorus

guitar 2
|-----8-8------8-8----8--|
|-6-6------6-6------6----|
|------------------------|
|------------------------|
|------------------------|
|------------------------|

|-----10-10----10---10---10---10---10--|
|-6-6-------6-----6----6----6----6-----|
|--------------------------------------|
|--------------------------------------|
|--------------------------------------|
|--------------------------------------|
            

comments powered by Disqus
↑ Back to top | Pacifier Tabs for Semi-Normal. Lyrics for acoustic guitar and electric guitar. Tablatures and chords are parodies/interpretations of the original songs. You may use it for private study, scholarship, research or language learning purposes only