» » »

Pacifier, Bullitproof Tabs (ver.2)

Artists:  A B C D E F G H I J K L M N O P Q R S T U V W X Y Z # 

Bullitproof Tabs (ver.2)

Pacifier Tabs
Rating:
0/5 (0 votes)
Hard to play? Try these video lessons and learn fast.
                Tuning:C-G-C-F-A-D

e|---------------------------------------------------------------------------|
B|---------------------------------------------------------------------------|
G|-----7---------------------------------------------------------------------|
D|--0--7---5-5-3-5-----------------------------------------------------------|
A|--0--5---5-5-3-5-----------------------------------------------------------|
E|--0------5-5-3-5-----------------------------------------------------------|

e|---------------------------------------------------------------------------|
B|---------------------------------------------------------------------------|
G|-----7---------------------------------------------------------------------|
D|--0--7---5-5-3-5-----------------------------------------------------------|
A|--0--5---5-5-3-5-----------------------------------------------------------|
E|--0------5-5-3-5-----------------------------------------------------------|

e|---------------------------------------------------------------------------|
B|---------------------------------------------------------------------------|
G|-----7---------------------------------------------------------------------|
D|--0--7---5-5-3-5-----------------------------------------------------------|
A|--0--5---5-5-3-5-----------------------------------------------------------|
E|--0------5-5-3-5-----------------------------------------------------------|

e|---------------------------------------------------------------------------|
B|---------------------------------------------------------------------------|
G|---------------------------------------------------------------------------|
D|--8-5-5-5-3-5-0------------------------------------------------------------|
A|--8-5-5-5-3-5-0------------------------------------------------------------|
E|--8-5-5-5-3-5-0------------------------------------------------------------|
            

comments powered by Disqus
↑ Back to top | Pacifier Tabs for Bullitproof. Lyrics for acoustic guitar and electric guitar. Tablatures and chords are parodies/interpretations of the original songs. You may use it for private study, scholarship, research or language learning purposes only