» » »

Bullitproof Tabs (ver.1)

Artists:  A B C D E F G H I J K L M N O P Q R S T U V W X Y Z # 

Bullitproof Tabs (ver.1)

Pacifier
Rating:
0/5 (0 votes)

Hard to play? Try these video lessons and learn fast.
                Pacifier - Bullitproof
Tuning - CGCfad

intro/chorus
|---------------|
|---------------|
|---7-----------|
|-0-7-0-0-5--3--| x2
|-0-5-0-0-5--3--|
|-0---0-0-5--3--|

then
|---------------------------|
|---------------------------|
|---7-----------------------|
|-0-7-0-0-5--8--3-5--5-3-3--|
|-0-5-0-0-5--8--3-5--5-3-3--|
|-0---0-0-5--8--3-5--5-3-3--|


verse
guitar 1
|---------------------|
|---3-----3-------3---|
|-----2-----2---2-----|
|-0-----0-----0-------|
|---------------------|
|---------------------|

guitar 2
|------------------|
|------------------|
|-7-7-7-7-7-7-7-7--|
|-7-7-7-7-7-7-7-7--| x4
|-5-5-5-5-5-5-5-5--|
|------------------|
 pm................

|--------------------------|
|--------------------------|
|-12-12-12-12-12-12-12-12--|
|-12-12-12-12-12-12-12-12--| x2
|-10-10-10-10-10-10-10-10--|
|--------------------------|
 pm........................

|------------------|
|------------------|
|-7-7-7-7-7-7-7-7--|
|-7-7-7-7-7-7-7-7--| x4
|-5-5-5-5-5-5-5-5--|
|------------------|
 pm................

|--------------------------|
|--------------------------|
|-12-12-12-12-12-12-12-12--|
|-12-12-12-12-12-12-12-12--| x2
|-10-10-10-10-10-10-10-10--|
|--------------------------|
 pm........................

|--------------------------|
|--------------------------|
|-10-10-10-10-10-10-10-10--|
|-10-10-10-10-10-10-10-10--| x2
|-8--8--8--8--8--8--8--8---|
|--------------------------|
 pm........................


solo 
====
guitar 1
|----------------------------------|
|----------------------------------|
|-7/14~~~~~~~-12~~~~~~-11~~~~~~~~--|
|----------------------------------|
|----------------------------------|
|----------------------------------|
let 11~~~~~~ ring out for ages and at
the end of the 2nd verse it goes back
up to 12~~~~~~ on the same string

guitar 2
|------------------|
|------------------|
|-7-7-7-7-7-7-7-7--|
|-7-7-7-7-7-7-7-7--| x4
|-5-5-5-5-5-5-5-5--|
|------------------|
 pm................


2nd verse
guitar 1
|---------------------|
|---3-----3-------3---|
|-----2-----2---2-----|
|-0-----0-----0-------|
|---------------------|
|---------------------|

guitar 2
|------------------|
|------------------|
|-7-7-7-7-7-7-7-7--|
|-7-7-7-7-7-7-7-7--| x4
|-5-5-5-5-5-5-5-5--|
|------------------|
 pm................

|--------------------------|
|--------------------------|
|-12-12-12-12-12-12-12-12--|
|-12-12-12-12-12-12-12-12--| x2
|-10-10-10-10-10-10-10-10--|
|--------------------------|
 pm........................

|--------------------------|
|--------------------------|
|-10-10-10-10-10-10-10-10--|
|-10-10-10-10-10-10-10-10--| x2
|-8--8--8--8--8--8--8--8---|
|--------------------------|
 pm........................


interlude
guitar 1
|---1---1---1---1---0---0--|
|-3---3---3---3---3---3----|
|--------------------------|
|--------------------------|
|--------------------------|
|--------------------------|

guitar 2
|------------------------------------------|
|------------------------------------------|
|-7-7-7-7-7-7-7-7-10-10-10-10-10-10-10-10--|
|-7-7-7-7-7-7-7-7-10-10-10-10-10-10-10-10--|
|-5-5-5-5-5-5-5-5-8--8--8--8--8--8--8--8---|
|------------------------------------------|
 pm........................................

|----------------------------------|
|----------------------------------|
|-7-7-7-7-7-7-7-7-5-5-5-5-5-5-5-5--|
|-7-7-7-7-7-7-7-7-5-5-5-5-5-5-5-5--|
|-5-5-5-5-5-5-5-5-3-3-3-3-3-3-3-3--|
|----------------------------------|
 pm................................


2nd interlude
guitar 1
|----------------------------------|
|----------------------------------|
|-7-7-7-7-7-7-7-7------------------|
|-7-7-7-7-7-7-7-7-7-7-7-7-7-7-7-7--|
|-5-5-5-5-5-5-5-5-7-7-7-7-7-7-7-7--|
|-----------------7-7-7-7-7-7-7-7--|

|--------------------------------------------------|
|--------------------------------------------------|
|-12-12-12-12-12-12-12-12-12-12-12-12-12-12-12-12--|
|-12-12-12-12-12-12-12-12-12-12-12-12-12-12-12-12--|
|-10-10-10-10-10-10-10-10-10-10-10-10-10-10-10-10--|
|--------------------------------------------------|

|----------------------------------|
|----------------------------------|
|-7-7-7-7-7-7-7-7------------------|
|-7-7-7-7-7-7-7-7-7-7-7-7-7-7-7-7--|
|-5-5-5-5-5-5-5-5-7-7-7-7-7-7-7-7--|
|-----------------7-7-7-7-7-7-7-7--|

|----------------------------------------|
|----------------------------------------|
|-12-12-12-12-12-12-12-12----------------|
|-12-12-12-12-12-12-12-12-8--3-5--5-3-3--|
|-10-10-10-10-10-10-10-10-8--3-5--5-3-3--|
|-------------------------8--3-5--5-3-3--|
                         |_____________|
guitar 2                       |
|----|                guitar 2 also plays
|----| let ring             this part
|-7--| 
|-7--| this note is played
|-5--| on the second time
|----|


outro
guitar 1
|----------------------------------|
|----------------------------------|
|-7-7-7-7-7-7-7-7------------------|
|-7-7-7-7-7-7-7-7-7-7-7-7-7-7-7-7--|
|-5-5-5-5-5-5-5-5-7-7-7-7-7-7-7-7--|
|-----------------7-7-7-7-7-7-7-7--|

|--------------------------------------------------|
|--------------------------------------------------|
|-12-12-12-12-12-12-12-12-12-12-12-12-12-12-12-12--|
|-12-12-12-12-12-12-12-12-12-12-12-12-12-12-12-12--|
|-10-10-10-10-10-10-10-10-10-10-10-10-10-10-10-10--|
|--------------------------------------------------|

|----------------------------------|
|----------------------------------|
|-7-7-7-7-7-7-7-7------------------|
|-7-7-7-7-7-7-7-7-7-7-7-7-7-7-7-7--|
|-5-5-5-5-5-5-5-5-7-7-7-7-7-7-7-7--|
|-----------------7-7-7-7-7-7-7-7--|

|----------------------------------------|
|----------------------------------------|
|-12-12-12-12-12-12-12-12----------------|
|-12-12-12-12-12-12-12-12-8--3-5--5-3-3--|
|-10-10-10-10-10-10-10-10-8--3-5--5-3-3--|
|-------------------------8--3-5--5-3-3--|

guitar 2
|----------------------------------|
|----------------------------------|
|-7-7-7-7-7-7-7-7------------------|
|-7-7-7-7-7-7-7-7-7-7-7-7-7-7-7-7--|
|-5-5-5-5-5-5-5-5-7-7-7-7-7-7-7-7--|
|-----------------7-7-7-7-7-7-7-7--|

|-------------------------------------|
|-------------------------------------|
|-11-12-12-x-14-12--11-12-12-x-14-12--|
|-11-12-12-x-14-12--11-12-12-x-14-12--|
|-------------------------------------|
|-------------------------------------|

|----------------------------------|
|----------------------------------|
|-7-7-7-7-7-7-7-7------------------|
|-7-7-7-7-7-7-7-7-7-7-7-7-7-7-7-7--|
|-5-5-5-5-5-5-5-5-7-7-7-7-7-7-7-7--|
|-----------------7-7-7-7-7-7-7-7--|

|----------------------------------|
|----------------------------------|
|-11-12-12-x-14-12-----------------|
|-11-12-12-x-14-12--8--3-5--5-3-3--|
|-------------------8--3-5--5-3-3--|
|-------------------8--3-5--5-3-3--|
            
Hard to play? Try these video lessons and learn fast. | Correct




comments powered by Disqus
↑ Back to top | Tablatures and chords are parodies/interpretations of the original songs. You may use it for private study, scholarship, research or language learning purposes only