>
 >
Canon In D

Canon In D Guitar Tabs

Pachelbell Johann - Canon In D chords, tabs, tablatures, lyrics

Guitar lessons | Add/correct | Request | Top 50 tabs Artists:  A B C D E F G H I J K L M N O P Q R S T U V W X Y Z 0-9

Canon In D Guitar Tabs – Pachelbell Johann

CD, Sheet music, Poster

Do you like Canon In D? Share with your friends now
Bass TabsTabs
Canon in D By Johann Pachelbel
***********************************************************************

For the chord purists amongst you, they are
(2 per bar): |D A|Bm F#m|G D|G A|


                    II..............
    |   |   |   |    |   |   |   |    |   |   |   |    |   |   |   |  
E-|-------2--------|----------------|----------------|----------------|
B-|-----3---------2|-------3-------2|-------0-------3|-------3-------2|
G-|---2---------2--|-----4-------2--|-----0-------2--|-----4-------2--|
D-|-0---------2----|---4-------4----|---0-------4----|---5-------2----|
A-|---------0------|-2--------------|---------5------|---------0------|
E-|----------------|---------2------|-3--------------|-3--------------|

                    II..............
    |   |   |   |    |   |   |   |    |   |   |   |    |   |   |   |  
E-|-2-------0------|----------------|----------------|----------------|
B-|-------3-----2--|-3-------2------|-0--------------|-0-----0-2-----2|
G-|-----2-----2----|-----4-------2--|-----0---2------|-----0-------2--|
D-|-0-0-----------2|---4---4---4---4|---0---0-----4--|---0-------2----|
A-|---------0------|-2--------------|---------5-5---5|---------0------|
E-|----------------|---------2------|-3--------------|-3--------------|

                    II..............
    |   |   |   |    |   |   |   |    |   |   |   |    |   |   |   |  
E-|-2-------0------|----------------|----------------|----------------|
B-|-3---3---2---2--|-3-------2------|-0--------------|-0-----0-2-----2|
G-|---2-------2----|-4---4---2---2--|-0---0---2------|-0---0---2---2--|
D-|-0-----0-------2|---4-------4---4|---0---0-4---4--|---0-------2----|
A-|---------0------|-2-----2--------|---------5-5---5|---------0------|
E-|----------------|---------2------|-3--------------|-3--------------|

   II......II.......II..............                          II......
    |   |   |   |    |   |   |   |    |   |   |   |    |   |   |   |  
E-|-----2---5---3--|-2-------2------|----------------|----------------|
B-|-3---3---------2|-----3-------5--|-3---0---3------|-3-------3---2--|
G-|---2---2-----2--|-----4-------2--|-----0-------2--|-----4-------2--|
D-|-0---------2----|---4---4---4----|---0---0---4---4|---5---5---2---2|
A-|---------0------|-2--------------|---------5---5--|---------0------|
E-|----------------|---------2------|-3--------------|-3---3----------|

                            IV........V......
    |   |   |   |    |   |   |   |    |   |   |   |    |   |   |   |  
E-|----------------|-----------2-5-7|-3-2-0-3---0----|----------------|
B-|-3-2-3----------|---3-2-0-2------|---------7---3-2|-0--------------|
G-|-----------2----|----------------|----------------|---2-0-----0----|
D-|-0-----0-----2-4|-0--------------|----------------|-------4-2---4-2|
A-|---------0------|-2--------------|---------5------|---------0------|
E-|----------------|---------2------|-3--------------|-3--------------|






                    II..............
    |   |   |   |    |   |   |   |    |   |   |   |    |   |   |   |  
E-|----------------|----------------|----------------|----------------|
B-|----------------|----------------|----------------|-------0--------|
G-|-------0-2---2-0|---4-2---2------|-0-----0--------|-0-------2-4-2-0|
D-|-0-2-4-----2----|-4-----5---5-4-2|---4-2---4-2-0-4|---4-2----------|
A-|-5-------0------|-2--------------|---------5------|---------0------|
E-|----------------|---------2------|-3--------------|-3--------------|

                    II.............                            V......
    |   |   |   |    |   |   |   |    |   |   |   |    |   |   |   |  
E-|-----2---0------|---------2------|-7-------5------|-7-------5------|
B-|-------3-2---2--|-3--------------|-----0-------7-5|-----0-----5----|
G-|-----2-----2---0|-----4-------2--|-------0--------|-------0-----6--|
D-|-0-0------------|---4---4---4---2|---0-----0-0----|---0-----------7|
A-|---------0------|-2--------------|----------------|---------0------|
E-|----------------|---------2------|-3--------------|-3--------------|

                                    II............                  
    |       |       |       |        |       |       |       |     
E-|-5---2-3-5---2-3-5---------0-2-3|-2-------2----------------------|
B-|---------------------0-2-3------|-----3-5-----------0------------|
G-|-------------------2------------|---------------0-2---2-0-2---0-2|
D-|-0------------------------------|-------------4-------------4----|
A-|-----------------0--------------|-2------------------------------|
E-|--------------------------------|-----------------2--------------|

    |       |       |       |        |       |       |       |     
E-|--------------------------------|-------------------------0-2-3-5|
B-|-----0-------------------------0|-----0---0---2-3---0-2-3--------|
G-|-0-----2-0-----------------0-2--|-0-----2---------2--------------|
D-|-------------4-2-4-2-0-2-4------|--------------------------------|
A-|-----------------5--------------|-----------------0--------------|
E-|-3------------------------------|-3------------------------------|

                                  II...........
    |       |       |       |        |       |       |       |     
E-|-2-----0-2---0---0-----0-2-0----|--------------------------------|
B-|-----3---------3---2-3-------3-2|-3-----2-3-----------------3-2h3|
G-|--------------------------------|-----4-------------0------------|
D-|-0------------------------------|-------------0-2-4---4-2-4------|
A-|-----------------0--------------|-2------------------------------|
E-|--------------------------------|-----------------2--------------|

    |       |       |       |        |       |       |       |     
E-|--------------------------------|--------------------------------|
B-|-----3-2-0-----------------0-2h3|-----3-2-3---2-0-2-3-5-3-2-3-0-2|
G-|-4-----------2-0-2-0---0-2------|-4------------------------------|
D-|---------------------4----------|--------------------------------|
A-|-----------------5--------------|-----------------0--------------|
E-|-3------------------------------|-3------------------------------|






    |       |       |       |        |       |       |       |     
E-|-2-----0-2-------0-------0------|--------------------------------|
B-|-3---3-------3---2---2-3-----2--|-3-----2-3-------2--------------|
G-|-2---------------2--------------|-4---4-------4---2---2----------|
D-|-0------------------------------|-4---------------4-----5-4---2--|
A-|-----------------0--------------|-2------------------------------|
E-|--------------------------------|-----------------2--------------|

                   II..............                 II.............
    |       |       |       |        |       |       |       |     
E-|--------------------------------|--------------------------------|
B-|-0------------------------------|-0---0--------------------------|
G-|-0---0-------0---2-----------2--|-0-----2-0-----------2----------|
D-|-0-----4-2-------4-----2-4------|-0-----------4---2-----5-4---2--|
A-|-----------------5---5----------|-----------------0--------------|
E-|-3------------------------------|-3------------------------------|

                                    II..............................
    |       |       |       |        |       |       |       |     
E-|--------------------------------|---------2-------2---2----------|
B-|-----3-2-3-------------0-2------|-----3-5-----3---------5-3---2--|
G-|-----------------2---2-------2--|--------------------------------|
D-|-4-----------4------------------|-4------------------------------|
A-|-5---------------0--------------|-2------------------------------|
E-|--------------------------------|-----------------2--------------|

                                II..III.............II..............
    |       |       |       |        |       |       |       |     
E-|---------------------2-0-----2-h|-3------------------------------|
B-|-0---0---0---2---3-------3------|-----3-----------------------2--|
G-|-------2------------------------|-------6-4---4---2-------2---2--|
D-|-----------------0--------------|---------------------2-------2--|
A-|--------------------------------|-----------------0--------------|
E-|-3------------------------------|-3------------------------------|

           II...... ................                          II......
    |   |   |   |    |   |   |   |    |   |   |   |    |   |   |   |  
E-|-2-----2-2-3-2-0|----------------|-------0-2---0--|----------------|
B-|-3-------2------|-3-----3-3-5-3-2|-0---0---3---3--|-3-------------2|
G-|-2---2---2------|-4---4---2------|-0-0-------2---2|-0-5-4-5-2---2--|
D-|-0-0-----2------|-4-4------------|-0-------0------|-0-------2-2----|
A-|---------0------|-2--------------|----------------|---------0------|
E-|----------------|---------2------|-3--------------|-3--------------|

                     II...........                             II.....
    |   |   |   |    |   |   |   |    |   |   |   |    |   |   |   |  
E-|-------5-5-7-5-3|-2-----2-2-3-2-0|----------------|----------------|
B-|-------7-7-8-7-5|-3-----3-3-5-3-2|-3--------------|-3------(2)----2|
G-|-----7----------|-4---4----------|---5-4-5-2---2--|-0-5-4-5-2---2--|
D-|---0------------|---4-----4------|-----------4---0|-0---------2----|
A-|-5-------0------|-2--------------|---------5------|---------0------|
E-|----------------|----------------|-3--------------|-3--------------|
                                                          optional note




     VII..VII........................                          V......
    |   |   |   |    |   |    |   |    |   |   |   |    |   |   |   |  
E-|-----------7----|----10--------9--|-7-------5------|-7-------5-5----|
B-|-----71010--10-8|-7-----7-10p7---7|-------0-------7|-----0---5---5--|
G-|---7------------|---7-------------|-----7-------7--|-------0-6-----6|
D-|-0--------------|-----------------|---0-----0-0----|---0-----7------|
A-|---------0------|----------9------|----------------|---------0------|
E-|----------------|-7---------------|-3--------------|-3--------------|

                     II......                                  II......
    |   |   |   |    |   |   |   |    |   |   |   |    |   |   |   |  
E-|-2--------------|----------------|----------------|-0--------------|
B-|-3-----3-----2--|-3-----------1--|-0-----3-----3--|-0-0-----3232323|
G-|-2---2-----2----|-4---4-------2--|-0---0---2-----2|-0---0---2------|
D-|-0-0-----------2|-4-4---4-------0|-0-0-------4----|-------0-2------|
A-|---------0------|-2---------0----|---------5------|---------0------|
E-|----------------|---------2------|-3--------------|-3--------------|
                                                                trill
.......
    |   |   |   |   
E-|----------------|
B-|-3--------------|
G-|-2--------------|
D-|-4--------------|
A-|-5--------------|
E-|----------------|


note: i didn't tab it out myself, i got it off another site, which my friend told
me about it. anyway, in that site, the tuning's drop D, so i decided to edit it
to standard tuning. hope you like it in the standard tuning.

victor van dam





Comments


Popular Pachelbell Johann tabs & chords
Canon In D Bass Tabs
Canon In D (Intro) Tabs
Canon In D Major Tabs
Pachelbels Canon Tabs


Song lyrics



↑ Back to top | Tablatures and chords are parodies/interpretations of the original songs. You may use it for private study, scholarship, research or language learning purposes only
© 2014 AZChords.com Contact us | Privacy policy | DMCA | Add/correct tabs | Request tabs | Top 50 tabs