» » »

Pachelbell Johann, Canon In D Major Tabs (ver.1)

Artists:  A B C D E F G H I J K L M N O P Q R S T U V W X Y Z # 

Canon In D Major Tabs (ver.1)

Pachelbell Johann Tabs
 Rating:
4/5 (4 votes)
Canon In D Major lessons Tabs too difficult? Try these video lessons and learn fast
                
Tuning:  D/E A D G B e
Tune all strings down a whole step.  Drop-D Capol at 2nd Fret -- All notes and
chords relative to capol, Open 6th string listed as "D".
Spacing: - = 32 note


D               A                Bm              Fm               G               D                G               A
------------2-------------------|--------------------------------|--------------------------------|--------------------------------|
--------3-------------------2---|------------3-------------------|--------------------------------|----------------------------2---|
----2-------------------2-------|--------4-------------------2---|------------0-------------------|------------0-----------2-------|
0-------------------2-----------|----4-------------------4-------|--------0---------------0---4---|--------0-----------2-----------|
----------------0---------------|2-------------------4-----------|----2---------------0-----------|----2-----------0---------------|
--------------------------------|----------------2---------------|3---------------D---------------|3-------------------------------|


D               A                Bm              Fm               G               D                G               A
2---------------0---------------|--------------------------------|--------------------------------|--------------------------------|
--------3-------------------2---|3---------------2---------------|0-------------------------------|0---------------2---------------|
----2-------2-----------2-------|--------4-------------------2---|----------------2---------------|------------------------2-------|
0-------------------2-----------|----4-------4-----------4-------|--------0---------------0---4---|--------0-----------2-------2---|
----------------0---------------|2-------------------4-----------|----2-------2-------0-----------|----2-------2---0---------------|
--------------------------------|----------------2---------------|3---------------D---------------|3-------------------------------|


D               A                Bm              Fm               G               D                G               A
2---------------0---------------|--------------------------------|--------------------------------|--------------------------------|
3-------3-------2-----------2---|3---------------2---------------|0-------------------------------|0---------------2---------------|
----2-------2-----------2-------|4-------4-------2-----------2---|0---------------2---------------|0---------------2-------2-------|
0-------------------2-----------|----4-------4-----------4-------|--------0-------4-------0---4---|--------0-----------2-------2---|
----------------0---------------|2-------------------4-----------|----2-------2-------0-----------|----2-------2---0---------------|
--------------------------------|----------------2---------------|3---------------D---------------|3-------------------------------|


D               A                Bm              Fm               G               D                G               A
2---------------5-------3-------|2---------------2---------------|--------------------------------|------------------------0-------|
--------3-----------------------|--------3---------------5-------|3-------0-------3---------------|0-------3-------2---------------|
----2-------2-------2-------2---|----4-------4-------2-------2---|----0-------0-----------2-------|----0-------0-------2-------2---|
0-------------------------------|--------------------------------|--------------------0-------0---|--------------------------------|
----------------0---------------|2-------------------------------|--------------------------------|----------------0---------------|
--------------------------------|----------------2---------------|3---------------D---------------|3-------------------------------|


D               A                Bm              Fm               G               D                G               A
5-----------5---5---7---5---3---|2-----------2---2---3---2-------|--------------------------------|--------------------------------|
--------3-----------------------|--------3-------------------5---|3---2---0---2---3---------------|0-------------------------------|
----2-------------------2-------|----4---------------------------|--------0---------------2-------|----2---0-----------------------|
0-------------------------------|------------------------4-------|--------------------4-------4---|--------0---4---2---------------|
----------------0---------------|2-------------------------------|------------------------5-------|----------------4---------------|
--------------------------------|----------------2---------------|3---------------D---------------|3---------------5---------------|


D               A                Bm              Fm               G               D                G               A
--------------------------------|--------------------2---5---7---|3---2---0---3---2---0-----------|--------------------------------|
3---2---3-----------------------|----0-----------2---------------|------------------------3---2---|0-------------------------------|
--------------------2-----------|--------------------------------|--------------------------------|----2---0-----------0-----------|
4-----------0---2-------2---4---|0-------7---5-------------------|--------------------------------|------------4---2-------4---2---|
5---------------4---------------|5---------------4---------------|2---------------0---------------|2---------------4---------------|
----------------5---------------|7---------------2---------------|3---------------D---------------|3---------------5---------------|

D               A                Bm              Fm               G               D                G               A
2---------------0---------------|--------------------------------|--------------------------------|--------------------------------|
--------------------------------|3---------------2---------------|0---------------3---2---0-------|0-----------0---2---------------|
------------0---2-------2---0---|0---4---2---0---2---------------|--------4---6---0-----------0---|0---------------2---4---2-------|
0---2---4-----------2-----------|--------------------5---4---2---|0-------------------------------|----4---2-----------------------|
5---------------0---------------|2-------------------------------|----2---------------------------|----------------0---------------|
--------------------------------|----------------2---------------|3---------------D---------------|3-------------------------------|


D               A                Bm              Fm               G               D                G               A
5---2-3-5---2-3-5---------0-2-3-|2-------2-----------------------|--------------------------------|--------------------------2-3-5-|
--------------------0-2-3-------|----3-5-------------------------|----0---------------------------|----0---0---2-3-----2-3-5-------|
------------------2-------------|----------------2-4-2-5-2-----2-|0-----2-0-----------------0-2-4-|0-----2---------2-4-------------|
0-------0-----------------------|------------4-5-----------4-5---|------------4-2-4-2-0-2-4-------|--------------------------------|
----------------0-------0-------|2-------2-----------------------|--------------------------------|----------------0-------0-------|
--------------------------------|----------------2-------2-------|3-------3-------D-------D-------|3-------3-----------------------|


D               A                Bm              Fm               G               D                G               A
2---------------0---------------|--------------------------------|--------------------------------|------------------------0------0h2~||
3-------3-------2-----------2---|3---------------2---------------|0-------------------------------|0-------3-------2---------------|3~||
----2-------2-----------2-------|4-------4-------2-----------2---|0---------------2---------------|0---------------2---------------|2~||
0-------------------2-----------|----4-------4-----------4-------|--------0-------4-------0---4---|--------------------2-------2---|0~||
----------------0---------------|2-------------------4-----------|----2-------2-------0-----------|----2-------2---0---------------|0~||
--------------------------------|----------------2---------------|3---------------D---------------|3-------------------------------|D~||

| h = hammer on

Note:  For printing, this fits well on a landscape-oriented page, font size 7.5
pt for letter size paper, 9 for legal size paper.
            
Submit corrections

comments powered by Disqus
↑ Back to top | Pachelbell Johann Tabs for Canon In D Major. Lyrics for acoustic guitar and electric guitar. Tablatures and chords are parodies/interpretations of the original songs. You may use it for private study, scholarship, research or language learning purposes only