>
 >
Prototype

Prototype Bass Tabs

Outkast - Prototype chords, tabs, tablatures, lyrics

Guitar lessons | Add/correct | Request | Top 50 tabs Artists:  A B C D E F G H I J K L M N O P Q R S T U V W X Y Z 0-9

Prototype Bass Tabs – Outkast

CD, Sheet music, Poster

Do you like Prototype? Share with your friends now
Bass TabsChordsTabsUkulele
--------------------------------------------------------------------------
--------------------------------------------------------------------------
Tuning: Drop D

I think this is one of the greatest Bass lines ever.
It takes hours to figure this out because there were so manny differences.
Much fun and don't forget to rate ;)

Intro: No Bass

               Chorus:
Bass comes in at 0:49              + +  <-- These are natural harmonics
G|------------|-----9/11*----------7-----|  
D|------------|---7-----0*---7*------7---|
A|----7---5---|-5---------7h9-0*---------|
D|--7---7---7-|--------------------------|

G|---------------------------------------|
D|---------------------------------------|
A|--5--------------------------7---5-----|
D|-------0-0----0-7----7-7---7---7---7---|

G|-----9/11*----------18-17-16~~~-\------|
D|---7-----0*---7*-----------------------|
A|-5---------7h9-0*----------------------|
D|---------------------------------------|

G|---------------------------------------|
D|---------------------------------------|
A|-5-------------------------------------|
D|------0-0------7-----------7-10-7-9----|
Verse:
G|---------------------------------------|
D|---------------------------------------|
A|-5----5-5------------------------------|
D|-------------7----7-7------------4-2---|

G|---------------------------------------|
D|---------------------------------------|
A|------5----------------------------7-5-|
D|-0------0----0-7--------7-9/10-9-7-----|

G|-----9/11*----------18--17--16---------|
D|---7-----0*-7---------18--17--16-\-----|
A|-5-------------------------------------|
D|--------------7------------------------|

G|---------------------------------------|
D|---------------------------------------|
A|-5-------------------------------------|
D|------0-0-----4-7-------7-4------------|

G|---------------------------------------|
D|----------------------------7/9\7------|
A|--------------------------7--------7-5-|
D|--0---0-0--2h4p2-----7-----------------|

G|---------------------------------------|
D|---------------------------------------|
A|-5---5-5-----7-------------------------|
D|---------------7-------0h7--7-10-7-9-7-|

Chorus:
G|-----9/11*---------18------------------|
D|---7-----0*--7-------18-\--------------|
A|-5-------------------------------------|
D|---------------------------------------|

G|---------------------------------------|
D|---------------------------------------|
A|-5----5-5----7-------------------------|
D|-----0-0-------7--0-5-0-7/9--7-5--2-0--|

Verse:
G|----------------------------------------|
D|-------------------------9h11-----------|
A|---5-7/9----5-7----------0----0---------|
D|-0--------------7-----------------------|

G|---------------------------------------|
D|---------------------------------------|
A|------5-----7--------------------------|
D|-0--------------7-----0-2-4-7--4-2-2-0-|

G|--------------------------18-----------|
D|---------------7-------------18-\------|
A|---5-7/9----7h9-0*---------------------|
D|-0-------------------------------------|

G|------7--------------------------------|
D|--------------7------------------------|
A|-5------5----------------------7---5---|
D|-----------------7-----7-7---7---7---7-|

Chorus:
G|-----9/11*-------------18-17-16~~\-----|
D|---7-----0*-----7*---------------------|
A|-5----------7h9---0*-------------------|
D|-----------------------------------12\-|

G|---------------------------------------|
D|---------------------------------------|
A|---------------------------------------|
D|-0----0-0------7-----5h7p5-7h5p4-0h2p0-|

                                   + +  <-- Natural Harmonics again
G|---------------------------------4-----|
D|---------------7-------------------4---|
A|------5-5/9----------------------------|
D|-0-------------------------------------|

G|---------------------------------------|
D|---------------------------------------|
A|-5-------------------------------------|
D|------0-0-----4-7-7--------------------|

End:
G|-----9/11*------------------19---------|
D|---7-----0*7*-------------------19-----|
A|-5----------0*-------------------------|
D|---------------------------------------|

G|---------------------------------------|
D|---------------------------------------|
A|------------------------------7---5----|
D|--0----0-0-----2-7-7---7-7--7---7---7--|

G|-----9/11*------------18-17-16/18-16---|
D|---7-----0*----7*-----18-17-16/18-16---|
A|-5----------7h9--0*---------------------|
D|---------------------------------------|

G|---------------------------------------|
D|---------------------------------------|
A|-5---------------------------7---5-----|
D|------0-0------7----7-7----7---7---7---|

G|-----9/11*--------------18-17-16-------|
D|---7-----0*7*--------------------------|
A|-5----------0*-------------------------|
D|----------------------------------12\--|

G|---------------------------------------|
D|---------------------------------------|
A|-------------7------------------------5|
D|-0----0-0------7-7---7-7---7-9-7-10-7--|

G|-----9/11*--------------18-17-16-------|
D|---7-----0*7*--------------------------|
A|-5----------0*-------------------------|
D|----------------------------------12\--|

G|---------------------------------------|
D|---------------------------------------|
A|-----------------------------7---5-----|
D|-0-----0-0-----2-7----7-7--7---7---7---|

G|---------------------------------------|
D|---------------------------------------|
A|-----5---------------------------------|
D|-0----0------0-7-7---7-7------5-3-2-0--|
                 Slap this little part
G|---------------------------------------|
D|----------------------7-7/9\7----------|
A|-------------------------------7-5-----|
D|-0----0-0-----0-7----------------------|

G|---9/1111*--------------18-17-16-------|
D|----------0*7*-------------------------|
A|-5------------0*-----------------------|
D|----------------------------------16\--|

G|---------------------------------------|
D|---------------------------------------|
A|-------------------------------7---5---|
D|-0----0-0-----2-7-7----7-7---7---7---7-|

G|-----9/11*--------------18-17-16-------|
D|---7-----0*7*--------------------------|
A|-5----------0*-------------------------|
D|----------------------------------12\--|

G|---------------------------------------|
D|---------------------------------------|
A|-------------------------------------5-|
D|-0----0-0---0-7-7--7-7----7-9-7-10-7---|

G|-----9/11*--------------18-17-16-------|
D|---7-----0*7*--------------------------|
A|-5----------0*-------------------------|
D|-------------------------------------0-|

Fade out -------------------------------->
G|---------------------------------------|
D|---------------------------------------|
A|-5----5-5----------------------7---5---|
D|--------------0-7-7----7-7---7---7---7-|

| *  let ring
| /  slide up
| \  slide down
| h  hammer-on
| p  pull-off
| ~  vibrato
| +  harmonic
| x  Mute note

Questions?
===========================================================================





Comments


Popular Outkast tabs & chords
The Whole World 1 Bass Tabs
Hey Ya Chords
Hey Ya! 2 Chords
Hollywood Divorce Chords
Hollywood Divorce 1 Chords
Prototype Chords
Gasoline Dreams Tabs
Roses 1 Tabs
God Interlude Ukulele
Prototype Ukulele


Song lyrics



↑ Back to top | Tablatures and chords are parodies/interpretations of the original songs. You may use it for private study, scholarship, research or language learning purposes only
© 2014 AZChords.com Contact us | Privacy policy | DMCA | Add/correct tabs | Request tabs | Top 50 tabs