» » »

Outkast, Miss Jackson Bass tabs (ver.1)

Artists:  A B C D E F G H I J K L M N O P Q R S T U V W X Y Z # 

Miss Jackson Bass tabs (ver.1)

Outkast Tabs
Rating:
0/5 (0 votes)
Miss Jackson lessons Tabs too difficult? Try these video lessons and learn fast
                Q=93
4/4
  Gtr I
|---------|---------|---------|-----|
|---------|---------|---------|-----|
|---------|---------|---------|-----|
|---------|---------|---------|-----|


|---------|---------|---------|-----|
|---------|---------|---------|-----|
|---------|---------|---------|-----|
|---------|---------|---------|-----|


|--------------------|----------------------|------------2--2-(2)----|
|------------3--3----|----------------------|---------2--------------|
|---------3----------|---------3------------|-0--(0)--------------0--|
|-1--(1)-------------|-1--(1)-----1--3-(3)--|------------------------|


|------------0--0------|--------------------|--------------------|
|---------2---------5--|--------3--3-(3)----|--------------------|
|----------------------|-----3--------------|--------------------|
|-3--(3)----------3----|-1---------------1--|-1--(1)--1--3-(3)---|


|--------2--2-(2)----|------------0--0------|--------------------|
|-----2--------------|---------2---------5--|------------3--3----|
|-0---------------0--|----------------------|---------3----------|
|--------------------|-3--(3)----------3----|-1--(1)-------------|


|----------------------|------------2--2-(2)----|------------0--0------|
|----------------------|---------2--------------|---------2---------5--|
|---------3------------|-0--(0)--------------0--|----------------------|
|-1--(1)-----1--3-(3)--|------------------------|-3--(3)----------3----|


|--------------------|-------------------|--------2--2-(2)----|
|--------3--3-(3)----|-------------------|-----2--------------|
|-----3--------------|-------------------|-0---------------0--|
|-1---------------1--|-1--(1)--1--3-(3)--|--------------------|


|------------0--0------|--------------------|----------------------|
|---------2---------5--|------------3--3----|----------------------|
|----------------------|---------3----------|---------3------------|
|-3--(3)----------3----|-1--(1)-------------|-1--(1)-----1--3-(3)--|


|------------2--2-(2)----|------------0--0------|--------------------|
|---------2--------------|---------2---------5--|--------3--3-(3)----|
|-0--(0)--------------0--|----------------------|-----3--------------|
|------------------------|-3--(3)----------3----|-1---------------1--|


|-------------------|--------2--2-(2)----|------------0--0-------|
|-------------------|-----2--------------|---------2---------5---|
|-------------------|-0---------------0--|-----------------------|
|-1--(1)--1--3-(3)--|--------------------|-3--(3)----------3-----|


|--------------------|----------------------|------------2--2-(2)----|
|------------3--3----|----------------------|---------2--------------|
|---------3----------|---------3------------|-0--(0)--------------0--|
|-1--(1)-------------|-1--(1)-----1--3-(3)--|------------------------|


|------------0--0------|--------------------|--------------------|
|---------2---------5--|--------3--3-(3)----|--------------------|
|----------------------|-----3--------------|--------------------|
|-3--(3)----------3----|-1---------------1--|-1--(1)--1--3-(3)---|


|--------2--2-(2)----|------------0--0------|--------------------|
|-----2--------------|---------2---------5--|------------3--3----|
|-0---------------0--|----------------------|---------3----------|
|--------------------|-3--(3)----------3----|-1--(1)-------------|


|----------------------|------------2--2-(2)----|------------0--0------|
|----------------------|---------2--------------|---------2---------5--|
|---------3------------|-0--(0)--------------0--|----------------------|
|-1--(1)-----1--3-(3)--|------------------------|-3--(3)----------3----|


                                  Q=93
|--------------------|-------------------|--------2--2-(2)----|
|--------3--3-(3)----|-------------------|-----2--------------|
|-----3--------------|-------------------|-0---------------0--|
|-1---------------1--|-1--(1)--1--3-(3)--|--------------------|


|------------0--0------|--------------------|----------------------|
|---------2---------5--|------------3--3----|----------------------|
|----------------------|---------3----------|---------3------------|
|-3--(3)----------3----|-1--(1)-------------|-1--(1)-----1--3-(3)--|


|------------2--2-(2)----|------------0--0------|--------------------|
|---------2--------------|---------2---------5--|--------3--3-(3)----|
|-0--(0)--------------0--|----------------------|-----3--------------|
|------------------------|-3--(3)----------3----|-1---------------1--|


|-------------------|--------2--2-(2)----|------------0--0-------|
|-------------------|-----2--------------|---------2---------5---|
|-------------------|-0---------------0--|-----------------------|
|-1--(1)--1--3-(3)--|--------------------|-3--(3)----------3-----|


|--------------------|----------------------|------------2--2-(2)----|
|------------3--3----|----------------------|---------2--------------|
|---------3----------|---------3------------|-0--(0)--------------0--|
|-1--(1)-------------|-1--(1)-----1--3-(3)--|------------------------|


|------------0--0------|--------------------|--------------------|
|---------2---------5--|--------3--3-(3)----|--------------------|
|----------------------|-----3--------------|--------------------|
|-3--(3)----------3----|-1---------------1--|-1--(1)--1--3-(3)---|


|--------2--2-(2)----|------------0--0------|--------------------|
|-----2--------------|---------2---------5--|------------3--3----|
|-0---------------0--|----------------------|---------3----------|
|--------------------|-3--(3)----------3----|-1--(1)-------------|


|----------------------|------------2--2-(2)----|------------0--0------|
|----------------------|---------2--------------|---------2---------5--|
|---------3------------|-0--(0)--------------0--|----------------------|
|-1--(1)-----1--3-(3)--|------------------------|-3--(3)----------3----|


|--------------------|-------------------|--------2--2-(2)----|
|--------3--3-(3)----|-------------------|-----2--------------|
|-----3--------------|-------------------|-0---------------0--|
|-1---------------1--|-1--(1)--1--3-(3)--|--------------------|


|------------0--0------|--------------------|----------------------|
|---------2---------5--|------------3--3----|----------------------|
|----------------------|---------3----------|---------3------------|
|-3--(3)----------3----|-1--(1)-------------|-1--(1)-----1--3-(3)--|


|------------2--2-(2)----|------------0--0------|--------------------|
|---------2--------------|---------2---------5--|--------3--3-(3)----|
|-0--(0)--------------0--|----------------------|-----3--------------|
|------------------------|-3--(3)----------3----|-1---------------1--|


|-------------------|--------2--2-(2)----|------------0--0-------|
|-------------------|-----2--------------|---------2---------5---|
|-------------------|-0---------------0--|-----------------------|
|-1--(1)--1--3-(3)--|--------------------|-3--(3)----------3-----|


|--------------------|----------------------|------------2--2-(2)----|
|------------3--3----|----------------------|---------2--------------|
|---------3----------|---------3------------|-0--(0)--------------0--|
|-1--(1)-------------|-1--(1)-----1--3-(3)--|------------------------|


|------------0--0------|--------------------|--------------------|
|---------2---------5--|--------3--3-(3)----|--------------------|
|----------------------|-----3--------------|--------------------|
|-3--(3)----------3----|-1---------------1--|-1--(1)--1--3-(3)---|


|--------2--2-(2)----|------------0--0------|--------------------|
|-----2--------------|---------2---------5--|------------3--3----|
|-0---------------0--|----------------------|---------3----------|
|--------------------|-3--(3)----------3----|-1--(1)-------------|


                Q=93
|----------------------|------------2--2-(2)----|------------0--0------|
|----------------------|---------2--------------|---------2---------5--|
|---------3------------|-0--(0)--------------0--|----------------------|
|-1--(1)-----1--3-(3)--|------------------------|-3--(3)----------3----|


|--------------------|-------------------|--------2--2-(2)----|
|--------3--3-(3)----|-------------------|-----2--------------|
|-----3--------------|-------------------|-0---------------0--|
|-1---------------1--|-1--(1)--1--3-(3)--|--------------------|


|------------0--0---------*|
|---------2---------5-----*|
|-------------------------*|
|-3--(3)----------3-------*|



powertab.guitarnetwork.org
 
            

comments powered by Disqus
↑ Back to top | Outkast Bass for Miss Jackson. Lyrics for acoustic guitar and electric guitar. Tablatures and chords are parodies/interpretations of the original songs. You may use it for private study, scholarship, research or language learning purposes only