» » »

Elevators (Me & You) Bass tabs (ver.1)

Artists:  A B C D E F G H I J K L M N O P Q R S T U V W X Y Z # 

Elevators (Me & You) Bass tabs (ver.1)

Outkast
Rating:
0/5 (0 votes)

Hard to play? Try these video lessons and learn fast.
                This is the main bass line starting at 0:40 :

G|---------------------------------------------------------------|
D|---------------------------------------------------------------| 
A|-------8----8-4--------8--------4--4-8----8-4--------8---------|
E|--6--6----------8--6-6------6-8---------------8--6-6------4-6--|

Variation at 1:40 :

G|---------------------------------------------------------------|
D|---------------------------------------------------------------| 
A|-------8----8-4--------8--------4--8---------6-----------------|
E|--6--6----------8--6-6------6-8-----------8---------------4-6--|
            
Hard to play? Try these video lessons and learn fast. | Correct




comments powered by Disqus
↑ Back to top | Tablatures and chords are parodies/interpretations of the original songs. You may use it for private study, scholarship, research or language learning purposes only