» » »

Outkast, B.O.B. (Bombs Over Baghdad) Tabs (ver.1)

Artists:  A B C D E F G H I J K L M N O P Q R S T U V W X Y Z # 

B.O.B. (Bombs Over Baghdad) Tabs (ver.1)

Outkast Tabs
 Rating:
4/5 (4 votes)
B.O.B. (Bombs Over Baghdad) lessons Tabs too difficult? Try these video lessons and learn fast
                Verse (slow hammer and pulloffs)
e-----------------------------------------------|
b-----------------------------------------------|
g-----6p5h6------6--5-6-------6p5h6------6--5-6-|
d-8~--------8-5-----------8~--------6-5---------|
a-----------------------------------------------|
e-----------------------------------------------|

chorus
Guitar 1
e-----------------------------------------------|
b-----------------------------------------------|
g-----6p5h6------6--5-6-------6p5h6------6--5-6-|
d-8~--------8-5-----------8~--------6-5---------|
a-----------------------------------------------|
e-----------------------------------------------|

Guitar 2 (you can hit the bottom e6's any
amount you want to make it sound good.)
e-------------------------------------------|
b-------------------------------------------|
g-------------------------------------------|
d-------------------------------------------|
a-------6-8-------6-8-------6-8-------------|
e-6--6------6--6------6--6------6--6--9-8-6-|

Verse 2 (once again, slow hammer, pulloffs)
e------------------------------------|
b--------9p8--------------9p8~-------|
g-8-10~------10~---8-10~--------10~--|
d------------------------------------|
a------------------------------------|
e------------------------------------|

e-----------------------------------------------|
b-----------------------------------------------|
g-----6p5h6------6--5-6-------6p5h6------6--5-6-|
d-8~--------8-5-----------8~--------6-5---------|
a-----------------------------------------------|
e-----------------------------------------------|

Chorus

Solo
e---------------------13-------------------------------13b~-13h14p13~-|
b----14---------14-----------14b~-----14---------14-------------------|
g-15----15~--15----15----15--------15----15~--15----15----------------|
d---------------------------------------------------------------------|
a---------------------------------------------------------------------|
e---------------------------------------------------------------------|

e-------------------------------------------------------14b-|
b-----6--6h7h8h9-8--9-8h9p8h9--11--12-14p13----16p15--------|
g--/8---------------------------------------15-------17-----|
d-----------------------------------------------------------|
a-----------------------------------------------------------|
e-----------------------------------------------------------|

e-14-13----------------------------------------------------------------|
b-------13-14-13------------------------13b-13b-13b-13b-13-14-13p11----|
g----------------15~--15p14----12h13h15-----------------------------13-|
d---------------------------17-----------------------------------------|
a----------------------------------------------------------------------|
e----------------------------------------------------------------------|

e------------------------------------|
b----14---------14-----14-----14-14b-|
g-15----15~--15----15-----15---------|
d------------------------------------|
a------------------------------------|
e------------------------------------|

e------------------------13b~--13h14p13b~--|
b----14----14~-----14----------------------|
g-15----15------15----15-------------------|
d------------------------------------------|
a------------------------------------------|
e------------------------------------------|

e------------------------------------------------------------|
b-11--13p11-13p11~---------------------------------------6~--|
g-------------------8//10~----6----6p5---6p5-----5-5h6p5-----|
d---------------------------8---8------8-----8-6-------------|
a------------------------------------------------------------|
e------------------------------------------------------------|

e-------------|
b--/6~--------|
g-------6/8~--|
d-------------|
a-------------|
e-------------|

Bridge
e-------------------------------|
b-------------------------------|
g-------------------------------|
d-8--8--8-8--8-8-7--7--7-7--7-7-| repeat
a-8--8--8-8--8-8-7--7--7-7--7-7-|  till
e-6--6--6-6--6-6-5--5--5-5--5-5-| outro

Outro
Synth
e---------|
b-4-------|
g---5-6~--| repeat
d---------|   as
a---------|  much
e---------| needed

ending of outro
e-------------------------------------------|
b-------------------------------------------|
g-------------------------------------------|
d-------------------------------------------|
a-------6-8-------6-8-------6-8-------------|
e-6--6------6--6------6--6------6--6--9-8-6-|
            
Submit corrections

comments powered by Disqus
↑ Back to top | Outkast Tabs for B.O.B. (Bombs Over Baghdad). Lyrics for acoustic guitar and electric guitar. Tablatures and chords are parodies/interpretations of the original songs. You may use it for private study, scholarship, research or language learning purposes only