» » »

Aquemini Tabs (ver.1)

Artists:  A B C D E F G H I J K L M N O P Q R S T U V W X Y Z # 

Aquemini Tabs (ver.1)

Outkast
Rating:
0/5 (0 votes)

Hard to play? Try these video lessons and learn fast.
                ********
********


just a dope jazzy beat and a good song
good album too but i think i like ATLiens better

so three's three main riffs over the C#m7 to A chord progression



Bass: (with implied chords)
  
  C#m7            A
  1 + 2 + 3 + 4 + 1 + 2 + 3 + 4 +
E|---------------|---------------||
B|---------------|---------------||
G|:--------------|--------------:||
D|---------------|---------------||
A|4-----4-4------|---------------||
E|---------------|5-----5-5------||



Electric guitar:  with wah

  C#m7            A
  1 + 2 + 3 + 4 + 1 + 2 + 3 + 4 +
E|12-------------|---------------||
B|14-------------|---------------||
G|13-------------|--------------:||
D|14-------------|---------------||
A|---------------|---------------||
E|---------------|---------------||

OR

  C#m7            A
  1 + 2 + 3 + 4 + 1 + 2 + 3 + 4 +
E|9--------------|---------------||
B|9--------------|---------------||
G|9--------------|--------------:||
D|9--------------|---------------||
A|---------------|---------------||
E|---------------|---------------||



and then a Second Bass arranged for guitar (bassists play this twelve frets higher)

  C#m7            A
  1 + 2 + 3 + 4 + 1 + 2 + 3 + 4 +
E|---------------|---------------||
B|---------------|---------------||
G|:--------------|--------------:||
D|------2---2/4--|---------------||
A|---------------|4--------------||
E|---------------|---------------||



And everything on one tab so you can see how it goes together
C#m7            A
  1 + 2 + 3 + 4 + 1 + 2 + 3 + 4 +
E|12-------------|---------------||
B|14-------------|---------------||
G|13-------------|--------------:||
D|14----2---2/4--|---------------||
A|4-----4-4------|4--------------||
E|---------------|5-----5-5------||

thats pretty much it. peace
            
Hard to play? Try these video lessons and learn fast. | Correct




comments powered by Disqus
↑ Back to top | Tablatures and chords are parodies/interpretations of the original songs. You may use it for private study, scholarship, research or language learning purposes only