» » »

Ordinary Boys, Week In Week Out Tabs (ver.2)

Artists:  A B C D E F G H I J K L M N O P Q R S T U V W X Y Z # 

Week In Week Out Tabs (ver.2)

Ordinary Boys Tabs
Rating:
5/5 (1 vote)
Hard to play? Try these video lessons and learn fast.
                Hiya guys, hope you check out my other tabs such as boys will be boys!
(Ver3) I pride my tabs on being 100% accurate and TOB good tabs are hard
to come by so I'm here to give a helping hand. This tab is also perfect.
Enjoy and please rate. 

Main riff:

|----------------------------------------|
|----------------------------------------|
|-7-7-6-4---7-6-4-4---6-6-------6--------|
|-9-9-7-5---9-7-5-5---7-7-7-4---7-7-4-4--|
|-------------------------9-5-----9-5-5--|
|----------------------------------------|

Also Preston play the Rythym Guitar which goes like this throughout the verses:

|------------|
|------------|
|-----7------|
|--5--7------|
|--5--5------| - You should be able to work out the strumming pattern.
|--3---------|


However in the chorous Preston changes his Pattern to:

|----------------------------------------|
|----------------------------------------|
|----------------------------------------|
|-------------------4-2------------------|
|-2--5--7--2--5--7--2-0--2--5--7---------|
|-0--3--5--0--3--5-------0--3--5---------|

(Cant be bothered to write each individual strum)

Chorous solo: Riff 1

|--------------------------------------------------------|
|----------------7------------10----12p10----------------|
|-----7-10-----7-------7-9s11----11-------11s9-----------| x2
|-7h9------7h9-----7h9-----------------------------------|
|--------------------------------------------------------|
|--------------------------------------------------------|

Riff 2
|----------------------------------------|
|-------7--7--7-------7-7-8p7------------|
|-----7--7--7--7-----7-7-7---7-----------|
|-7h9------------7h9---------------------| - After this Repeat Riff 1.
|----------------------------------------|
|----------------------------------------|

Post 1st chorous solo: (use continuous quater tone bending where a bend is implicated)

|----------------------------------------|
|----------------------------------------|
|-7b-7b-7b-7b-9-9-9-11b-11b-11b-11b-11b-9| x2
|----------------------------------------|
|----------------------------------------|
|----------------------------------------|



|----------------------------------------------------------|
|----------------------------------------------------------|
|-12-12-12p11---11--12-12-12p11----11--14-12-11-12-11-12-11|
|-------------12----------------12-----12-12-12-12-12-12-12|
|----------------------------------------------------------|
|----------------------------------------------------------|



|--------------------------------------------|
|--------------------------------------------|
|-12-12-12p11--11--12-12-12p11--11-14-14-14--|
|------------12---------------12---12-12-12--| 
|--------------------------------------------|
|--------------------------------------------|

Throughout the solo preston plays Riff 1 on his Guitar. After this go back to verse riffs.

After 2nd chorous:




|----------------------------------------|
|-7h8-7h8-7h8-7h8-7h8-7h8-7h8-7h8-10t----|
|----------------------------------------|
|----------------------------------------| x2
|----------------------------------------|
|----------------------------------------|



|--------------------------------------------------------|
|--------------------------------10--12--14--14--15------|
|-12-12-12p11--11--12-12-12p11---12b-14b-16b-16b-17b-----|
|------------12---------------12-------------------------|
|--------------------------------------------------------|
|--------------------------------------------------------|



|----------------------------------------|
|----------------------------------------|
|-12-12-12p11---11--12-12-12p11---11-14--|
|-------------12----------------12---12--|
|----------------------------------------|
|----------------------------------------|

Outro:

|----------------------------------------|
|----------------------------------------|
|-7--9--11b-11p9-7-7--9--11--9--4--------| 
|----------------------------------------|
|----------------------------------------| - Bend 3rd note up and down.
|----------------------------------------|

Key:
b = bend (unless stated otherwise)
p = Pull off
h = Hammer on

Sorry its a bit long winded but it has lots of guitar parts. Thanks for veiwin..rate please.
            

comments powered by Disqus
↑ Back to top | Ordinary Boys Tabs for Week In Week Out. Lyrics for acoustic guitar and electric guitar. Tablatures and chords are parodies/interpretations of the original songs. You may use it for private study, scholarship, research or language learning purposes only