>
 >
Week In Week Out

Week In Week Out Guitar Tabs

Ordinary Boys - Week In Week Out chords, tabs, tablatures, lyrics

Guitar lessons | Add/correct | Request | Top 50 tabs Artists:  A B C D E F G H I J K L M N O P Q R S T U V W X Y Z 0-9

Week In Week Out Guitar Tabs – Ordinary Boys

CD, Sheet music, Poster

Do you like Week In Week Out? Share with your friends now
TabsTabs v2
Intro + verse

e|-------------------------------------|
B|-------------------------------------|
G|-77-6-4--7-6-44-44-66------6---------|
D|-55-5-5--5-5-55-55-00-7-4--0-7-44444-|x3, then
A|----------------------5-5----5-55555-|
E|-------------------------------------|

e|-------------------------------|
B|-------------------------------|
G|-77-6-4--7-6-44-44666666667777-|
D|-55-5-5--5-5-55-55777777777777-|
A|------------------777777777777-|
E|-------------------------------|

Chorus 

e|-------------------------------------------------|
B|-------10-7--------7--------------10--12p10------|
G|-----7-----------7---7-----7-9s11---11-----11p9~-|
D|-7h9---------7h9--------7h9----------------------|x2
A|-------------------------------------------------|
E|-------------------------------------------------|

e|----------------------------------------|
B|-------7----7---7----------7---7---8p7--|
G|-----7----7---7---7------7---7---7----7-|
D|-7h9-----------------7h9----------------|
A|----------------------------------------|
E|----------------------------------------|

e|-------------------------------------------------|
B|-------10-7--------7--------------10--12p10------|
G|-----7-----------7---7-----7-9s11---11-----11p9~-|
D|-7h9---------7h9--------7h9----------------------|
A|-------------------------------------------------|
E|-------------------------------------------------|

Solo 1 

e|------------------------------------------------------------------|
B|----------------------------------7-7-7-7-7-7-7--7--7-8-8-7-7-----|
G|-7---7-7-7-7-9b-7-9b-7-7-7--9-9-9----------------------------9-9--|
D|------------------------------------------------------------------|x2
A|------------------------------------------------------------------|
E|------------------------------------------------------------------|

e|-----------------------------------------------|
B|-7-8-8-8-8---7-8-8-8-8--7--8-7-7h8p7---7h8-7---|
G|-----------7-7-7-7-7-7--7--7-7-------7----7----|
D|-----------------------------------------------|
A|-----------------------------------------------|
E|-----------------------------------------------|

e|--------------------------------------------------------------|
B|-7-8-8-8-8---7-8-8-8-8-7-----10101010101010101010101010101010-|
G|-----------7-----------7-----7-7-7-7-7-7-7-7-7-7-7-7-7-7-7-7--|
D|--------------------------------------------------------------|
A|--------------------------------------------------------------|
E|--------------------------------------------------------------|

Repeat verse + chorus, then

Solo 2

e|-------------------------------------|
B|-7h8-7h8-7h8-7h8-7h8-7h8-7h8-7h8-10t-|
G|-------------------------------------|
D|-------------------------------------|x2
A|-------------------------------------|
E|-------------------------------------|

E|--------------------------5---7---9--9--10--|
B|-7-8-8-8-8---7-8-8-8-888--8b--10b-12b12b13b-|
G|-----------7-7-7-7-7-777--------------------|
D|--------------------------------------------|
A|--------------------------------------------|
E|--------------------------------------------|

E|---------------------------------------------------|
B|--7-8-8-8-8---7-8-8-8-888--10-10101010101010101010-|
G|-7----------7-7-7-7-7-777--7--7-7-7-7-7-7-7-7-7-7--|
D|---------------------------------------------------|
A|---------------------------------------------------|
E|---------------------------------------------------|

Repeat chorus again, then

Outro

E|---------------------------------------------------------|
B|---------7h8p7h8p7h8p7h8p7h8p7h8-7-----------7-----------|
G|-7---9-----------------------------9-7---9-------9---4---|
D|---------------------------------------------------------|
A|---------------------------------------------------------|
E|---------------------------------------------------------|





Comments


Popular Ordinary Boys tabs & chords
Don't Live Too Fast Bass Tabs
 Just A Song Chords
I Luv You 5 Chords
Boys Will Be Boys Tabs
Seaside Tabs
Boys Will Be Boys Ukulele
I Luv You Ukulele
Just A Song Ukulele
List Goes On Ukulele
Talk Talk Talk Ukulele


Song lyrics



↑ Back to top | Tablatures and chords are parodies/interpretations of the original songs. You may use it for private study, scholarship, research or language learning purposes only
© 2014 AZChords.com Contact us | Privacy policy | DMCA | Add/correct tabs | Request tabs | Top 50 tabs