>
 >
Over The Counter Culture 1

Over The Counter Culture 1 Guitar Tabs

Ordinary Boys - Over The Counter Culture 1 chords, tabs, tablatures, lyrics

Guitar lessons | Add/correct | Request | Top 50 tabs Artists:  A B C D E F G H I J K L M N O P Q R S T U V W X Y Z 0-9

Over The Counter Culture 1 Guitar Tabs – Ordinary Boys

CD, Sheet music, Poster

Do you like Over The Counter Culture 1? Share with your friends now
Bass TabsTabsTabs v2Tabs v3
Over The Counter Culture

Chords Used
        Dm   A#  F     C
 e|---5-----5----8-----8-----|
 b|---6-----5---10----8------|
 g|---7-----6---10----9------|
 d|---7-----7---10---10------|
 a|---5-----7----8----10-----|
 e|---5-----5----8-----8-----|

Intro
 e|----5--5--5--5--5-----5--5--5-----8---8---8-------|
B|----6--6--6--6--6-----5--5--5----10--10--10--------|
G|----7--7--7--7--7-----6--6--6----10--10--10--------|
D|----7--7--7--7--7-----7--7--7----10--10--10--------|
A|----5--5--5--5--5-----7--7--7-----8----8---8-------|
E|----5--5--5--5--5-----5--5--5-----8----8---8-------|
 play twice, but on second time, dont play the F chord at all go straight to this lead part

e|--------------5--6--5------------5--6--5-------------------------------------|
B|----6---3---------------6---3---------------6---3----------------------------|
G|-----------------------------------------------------------------------------|
D|-----------------------------------------------------------------------------|
A|-----------------------------------------------------------------------------|
E|-----------------------------------------------------------------------------|

e|-----------------------------------------------------------------------------|
B|----------------6---4----------------8---6-----------------------------------|
G|---1-slide-5----------5-slide-7----------------------------------------------|
D|-----------------------------------------------------------------------------|
A|-----------------------------------------------------------------------------|
E|-----------------------------------------------------------------------------|
repeat whole lead sequence twice then

 e|----5---5---5-5-5-5---5--5-5-5----|
B|----6---6---6-6-6-6---6--6-6-6-----|
G|----7---7---7-7-7-7---7--7-7-7-----|
D|----7---7---7-7-7-7---7--7-7-7-----|
A|----5---5---5-5-5-5---5--5-5-5-----|
E|----5---5---5-5-5-5---5--5-5-5-----|


Dm
Over the counter culture,
               A#                         F
Well that's right were you belong
Dm
You try to sever your ties with the London skies,
                  A#                              F
But you've got the whole thing wrong

Dm
You try to be so different,
             A#             F
As does everybody else
Dm
Create your own distinctions,
         A#                          F
And flaunt them for yourself.

e|--------------5--6--5------------5--6--5-------------------------------------|
B|----6---3---------------6---3---------------6---3----------------------------|
G|-----------------------------------------------------------------------------|
D|-----------------------------------------------------------------------------|
A|-----------------------------------------------------------------------------|
E|-----------------------------------------------------------------------------|

e|-----------------------------------------------------------------------------|
B|----------------6---4----------------8---6-----------------------------------|
G|---1-slide-5----------5-slide-7----------------------------------------------|
D|-----------------------------------------------------------------------------|
A|-----------------------------------------------------------------------------|
E|-----------------------------------------------------------------------------|
repeat whole lead sequence twice then

 e|----5---5---5-5-5-5---5--5-5-5----|
B|----6---6---6-6-6-6---6--6-6-6-----|
G|----7---7---7-7-7-7---7--7-7-7-----|
D|----7---7---7-7-7-7---7--7-7-7-----|
A|----5---5---5-5-5-5---5--5-5-5-----|
E|----5---5---5-5-5-5---5--5-5-5-----|

Dm
Over the counter culture
                    A#                F
With your cards and catalogues,
Dm
The mainstream wipes the river bed clean,
A#(hold)                 F(hold)
You're just wrong, you're just.....wrong

A#                  F                   A#
You think you followed your heart again,
A#        C         A#
Now its in to be out,
A#               F                    A#
Destroy the plans and just start again,
A#                       C                     A#
Don't pretend to not pretend at all.

Thats preety much it apart from the twidly solo thing which i dont have a clue about please rate!!
Dm
Over the counter culture
               A#                    F
Well you live your life in waves
Dm
Last years dream was a terrible scheme
        A#                      F
And this new fad will fade.

Dm                                 F
Lets see....what can we be now?
                    A#             F
That hasn't been done before?
C
Shut your eyes,
F       A#
Look inside

A#                  F                     A#
You think you followed your heart again,
A#        C          A#
Now its in to be out,
A#              F                     A#
Destroy the plans and just start again,
A#                       C                    A#
Don't pretend to not pretend at all.





Comments


Popular Ordinary Boys tabs & chords
Boys Will Be Boys Chords
I Luv You Chords
I Luv You 5 Chords
I Luv You 6 Chords
In Awe Of The Awful Chords
List Goes On Chords
Brassbound Tabs
Week In Week Out 1 Tabs
Boys Will Be Boys Ukulele
Talk Talk Talk Ukulele


Song lyrics



↑ Back to top | Tablatures and chords are parodies/interpretations of the original songs. You may use it for private study, scholarship, research or language learning purposes only
© 2014 AZChords.com Contact us | Privacy policy | DMCA | Add/correct tabs | Request tabs | Top 50 tabs