>
 >
Over The Counter Culture

Over The Counter Culture Guitar Tabs

Ordinary Boys - Over The Counter Culture chords, tabs, tablatures, lyrics

Guitar lessons | Add/correct | Request | Top 50 tabs Artists:  A B C D E F G H I J K L M N O P Q R S T U V W X Y Z 0-9

Over The Counter Culture Guitar Tabs – Ordinary Boys

CD, Sheet music, Poster

Do you like Over The Counter Culture? Share with your friends now
Bass TabsTabsTabs v2Tabs v3
ver The Counter Culture  The Ordinary Boys
Cover by Joe Lewis




00:06


E|--5--5--5--5--5--5--5--5--5--5--5--5--5--5--5--5--8--8--8--8--8--8--8--8--|
B|--6--6--6--6--6--6--6--6--6--6--6--6--6--6--6--6--11-11-11-11-11-11-11-11-|
G|--7--7--7--7--7--7--7--7--7--7--7--7--7--7--7--7--10-10-10-10-10-10-10-10-|
D|--7--7--7--7--7--7--7--7--7--7--7--7--7--7--7--7--10-10-10-10-10-10-10-10-|
A|--5--5--5--5--5--5--5--5--5--5--5--5--5--5--5--5--8--8--8--8--8--8--8--8--|
E|--------------------------------------------------------------------------|

E|--8--8--8--8--8--8--8--8--|
B|--10-10-10-11-11-11-10-10-|
G|--10-10-10-10-10-10-10-10-|
D|--10-10-10-10-10-10-10-10-|
A|--8--8--8--8--8--8--8--8--|
E|--------------------------|

E|--5--5--5--5--5--5--5--5--5--5--5--5--5--5--5--5--8--8--8--8--8--8--8--8--|
B|--6--6--6--6--6--6--6--6--6--6--6--6--6--6--6--6--11-11-11-11-11-11-11-11-|
G|--7--7--7--7--7--7--7--7--7--7--7--7--7--7--7--7--10-10-10-10-10-10-10-10-|
D|--7--7--7--7--7--7--7--7--7--7--7--7--7--7--7--7--10-10-10-10-10-10-10-10-|
A|--5--5--5--5--5--5--5--5--5--5--5--5--5--5--5--5--8--8--8--8--8--8--8--8--|
E|--------------------------------------------------------------------------|

00:16

E|-5---5h6p5--5---5h6p5--5----5h6p5-5----------------------------|
B|-6-6--------6-6--------6-6--------6-6--------6-----------6/8-6-|
G|---7----------7----------7----------7------5---5---3/5-5-------|
D|---------------------------------------5h7---------------------|
A|---------------------------------------------------------------|
E|---------------------------------------------------------------|

E|-5---5h6p5--5---5h6p5--5----5h6p5-5----------------------------|
B|-6-6--------6-6--------6-6--------6-6--------6-----------6b8r6-|
G|---7----------7----------7----------7------5---5---3/5-5-------|
D|---------------------------------------5h7---------------------|
A|---------------------------------------------------------------|
E|---------------------------------------------------------------|

00:30

E|--5--5--5-5-5-5--5--5-5-5-5-5-5-|
B|--6--6--6-6-6-6--6--6-6-6-6-6-6-|
G|--7--7--7-5-7-5--7--7-5-7-5-7-5-|
D|--7--7--7-7-7-7--7--7-7-7-7-7-7-|
A|--5--5--5-5-5-5--5--5-5-5-5-5-5-|
E|--------------------------------|

E|--5--5--5-5-5-5--5--5--5-5-5--6--6--6-6-6-6--1--1--1--1-|
B|--6--6--6-6-6-6--6--6--6-6-6--6--6--6-6-6-6--1--1--1--1-|
G|--7--7--7-5-7-5--7--7--7-5-7--7--7--7-7-7-7--2--2--2--2-|
D|--7--7--7-7-7-7--7--7--7-7-7--8--8--8-8-8-8--3--3--3--3-|
A|--5--5--5-5-5-5--5--5--5-5-5--8--8--8-8-8-8--3--3--3--3-|
E|------------------------------6--6--6-6-6-6--1--1--1--1-|

E|--5--5--5-5-5-5--5--5--5-5-5--6--6--6-6-6-6--8--8--8--8--|
B|--6--6--6-6-6-6--6--6--6-6-6--6--6--6-6-6-6--10-10-11-10-|
G|--7--7--7-5-7-5--7--7--7-5-7--7--7--7-7-7-7--10-10-10-10-|
D|--7--7--7-7-7-7--7--7--7-7-7--8--8--8-8-8-8--10-10-10-10-|
A|--5--5--5-5-5-5--5--5--5-5-5--8--8--8-8-8-8--8--8--8--8--|
E|------------------------------6--6--6-6-6-6--------------|





E|--5--5--5-5-5-5--5--5--5-5-5--6--6--6-6-6-6--8--8--8--8--|
B|--6--6--6-6-6-6--6--6--6-6-6--6--6--6-6-6-6--10-10-11-10-|
G|--7--7--7-5-7-5--7--7--7-5-7--7--7--7-7-7-7--10-10-10-10-|
D|--7--7--7-7-7-7--7--7--7-7-7--8--8--8-8-8-8--10-10-10-10-|
A|--5--5--5-5-5-5--5--5--5-5-5--8--8--8-8-8-8--8--8--8--8--|
E|------------------------------6--6--6-6-6-6--------------|

E|--5--5--5-5-5-5--5--5--5-5-5--6--6--6-6-6-6-----------------------|
B|--6--6--6-6-6-6--6--6--6-6-6--6--6--6-6-6-6-----------------------|
G|--7--7--7-5-7-5--7--7--7-5-7--7--7--7-7-7-7--14-14-14-14-14-14-14-|
D|--7--7--7-7-7-7--7--7--7-7-7--8--8--8-8-8-8--x--x--x--x--x--x--x--|
A|--5--5--5-5-5-5--5--5--5-5-5--8--8--8-8-8-8--12-12-12-12-12-12-12-|
E|------------------------------6--6--6-6-6-6-----------------------|


00:56


E|--8h10p8-8------8h10p8-8-------------5-----------6-5-|
B|---------10-10---------10-10-------6---6---3/6-6-----|
G|------------10------------10---3/5-------------------|
D|-----------------------------------------------------|
A|-----------------------------------------------------|
E|-----------------------------------------------------|

E|--8h10p8-8------8h10p8-8--------------------------------|
B|---------10-10---------10-10b---------6-----------6/8-6-|
G|------------10------------10b-------5---5---3/5-5-------|
D|--------------------------------5h7---------------------|
A|--------------------------------------------------------|
E|--------------------------------------------------------|

01:07

E|--5--5--5-5-5-5--5--5--5-5-5--6--6--6-6-6-6--8--8--8--8--|
B|--6--6--6-6-6-6--6--6--6-6-6--6--6--6-6-6-6--10-10-11-10-|
G|--7--7--7-5-7-5--7--7--7-5-7--7--7--7-7-7-7--10-10-10-10-|
D|--7--7--7-7-7-7--7--7--7-7-7--8--8--8-8-8-8--10-10-10-10-|
A|--5--5--5-5-5-5--5--5--5-5-5--8--8--8-8-8-8--8--8--8--8--|
E|------------------------------6--6--6-6-6-6--------------|

E|--5--5--5-5-5-5--5--5--5-5-5--8--8--8--8--8--8--8--8--13-13-13-13-13-13-13-13-|
B|--6--6--6-6-6-6--6--6--6-6-6--10-10-10-10-10-10-10-10-15-15-15-15-15-15-15-15-|
G|--7--7--7-5-7-5--7--7--7-5-7--------------------------------------------------|
D|--7--7--7-7-7-7--7--7--7-7-7--------------------------------------------------|
A|--5--5--5-5-5-5--5--5--5-5-5--------------------------------------------------|
E|------------------------------------------------------------------------------|

01:19

E|--3--3-3-3-3--5--5-5-5-5--6--6-6-6-6--6--6-6-6-6-|
B|--3--3-3-3-3--5--5-5-5-5--6--6-6-6-6--6--6-6-6-6-|
G|--3--3-3-3-3--5--5-5-5-5--7--7-7-7-7--7--7-7-7-7-|
D|--5--5-5-5-5--7--7-7-7-7--8--8-8-8-8--8--8-8-8-8-|
A|--5--5-5-5-5--7--7-7-7-7--8--8-8-8-8--8--8-8-8-8-|
E|--3--3-3-3-3--5--5-5-5-5--6--6-6-6-6--6--6-6-6-6-|

E|--3--3-3-3-3--5--5-5-5-5--6--6-6-6-6--6--6-6-6-6-|
B|--3--3-3-3-3--5--5-5-5-5--6--6-6-6-6--6--6-6-6-6-|
G|--3--3-3-3-3--5--5-5-5-5--7--7-7-7-7--7--7-7-7-7-|
D|--5--5-5-5-5--7--7-7-7-7--8--8-8-8-8--8--8-8-8-8-|
A|--5--5-5-5-5--7--7-7-7-7--8--8-8-8-8--8--8-8-8-8-|
E|--3--3-3-3-3--5--5-5-5-5--6--6-6-6-6--6--6-6-6-6-|

E|--3--3-3-3-3--5--5-5-5-5--6--6-6-6-6--x--x-x-x-x-|
B|--3--3-3-3-3--5--5-5-5-5--6--6-6-6-6--8--x-x-x-x-|
G|--3--3-3-3-3--5--5-5-5-5--7--7-7-7-7--7--7-7-7-7-|
D|--5--5-5-5-5--7--7-7-7-7--8--8-8-8-8--x--x-x-x-x-|
A|--5--5-5-5-5--7--7-7-7-7--8--8-8-8-8--8--8-8-8-8-|
E|--3--3-3-3-3--5--5-5-5-5--6--6-6-6-6--6--6-6-6-6-|


E|--3--3-3-3-3--5--5-5-5-5--6--6-6-6-6-6-6-6-6-6-6-6-6-6-6-|
B|--3--3-3-3-3--5--5-5-5-5--6--6-6-6-6-6-6-6-6-6-6-6-6-6-6-|
G|--3--3-3-3-3--5--5-5-5-5--7--7-7-7-7-7-7-7-7-7-7-7-7-7-7-|
D|--5--5-5-5-5--7--7-7-7-7--8--8-8-8-8-8-8-8-8-8-8-8-8-8-8-|
A|--5--5-5-5-5--7--7-7-7-7--8--8-8-8-8-8-8-8-8-8-8-8-8-8-8-|
E|--3--3-3-3-3--5--5-5-5-5--6--6-6-6-6-6-6-6-6-6-6-6-6-6-6-|

01:42

E|--13-12-10----------------13-12-10----------------13-12-10------------------|
B|-----------13-11-10----------------13-11-10-----------------13-11-10--------|
G|--------------------12-10-------------------12-10--------------------12-10--|
D|----------------------------------------------------------------------------|
A|----------------------------------------------------------------------------|
E|----------------------------------------------------------------------------|

E|--------------------|
B|--10--10--10--------|
G|--12b-12b-12b-12-10-|
D|--------------------|
A|--------------------|
E|--------------------|

E|--13-12-10----------------13-12-10----------------13-12-10------------------|
B|-----------13-11-10----------------13-11-10-----------------13-11-10--------|
G|--------------------12-10-------------------12-10--------------------12-10--|
D|----------------------------------------------------------------------------|
A|----------------------------------------------------------------------------|
E|----------------------------------------------------------------------------|

E|------------------------------------------0-|
B|--10--10--10------------------------------0-|
G|--12b-12b-12b-12-10---7--7--7-5-7-5-7>7b--0-|
D|------------------------------------------0-|
A|------------------------------------------0-|
E|--------------------------------------------|

01:56

E|--5--5--5-5-5-5--5--5--5-5-5--6--6--6-6-6-6--1--1--1--1-|
B|--6--6--6-6-6-6--6--6--6-6-6--6--6--6-6-6-6--1--1--1--1-|
G|--7--7--7-5-7-5--7--7--7-5-7--7--7--7-7-7-7--2--2--3--2-|
D|--7--7--7-7-7-7--7--7--7-7-7--8--8--8-8-8-8--3--3--x--3-|
A|--5--5--5-5-5-5--5--5--5-5-5--8--8--8-8-8-8--3--3--3--3-|
E|------------------------------6--6--6-6-6-6--1--1--1--1-|

E|--5--5--5-5-5-5--5--5--5-5-5--6--6--6-6-6-6--1--1--1--1-|
B|--6--6--6-6-6-6--6--6--6-6-6--6--6--6-6-6-6--1--1--1--1-|
G|--7--7--7-5-7-5--7--7--7-5-7--7--7--7-7-7-7--2--2--3--2-|
D|--7--7--7-7-7-7--7--7--7-7-7--8--8--8-8-8-8--3--3--x--3-|
A|--5--5--5-5-5-5--5--5--5-5-5--8--8--8-8-8-8--3--3--3--3-|
E|------------------------------6--6--6-6-6-6--1--1--1--1-|

E|--5-5-5-5-5-5-5-5-5-5-5-5-5-5-5-5-6-6-6-6-6-6-6-6-5-5-5-6-6-6-5-5-|
B|--6-6-6-6-6-6-6-6-6-6-6-6-6-6-6-6-6-6-6-6-6-6-6-6-6-6-6-6-6-6-6-6-|
G|------------------------------------------------------------------|
D|------------------------------------------------------------------|
A|------------------------------------------------------------------|
E|------------------------------------------------------------------|

E|-8-8-8-8-8-8-8-8-8-8-8-8-8-8--10/---8--8--8---3-3-3-3-3-3-3-3-----|
B|-1010101010101010101010101010-10/---10-10-10--5-5-5-5-5-5-5-5-----|
G|------------------------------------------------------------------|
D|------------------------------------------------------------------|
A|------------------------------------------------------------------|
E|------------------------------------------------------------------|

02:19

E|--3--3-3-3-3--5--5-5-5-5--6------------------------|
B|--3--3-3-3-3--5--5-5-5-5--6------------------------|
G|--3--3-3-3-3--5--5-5-5-5--7--7-7-7-7-7-7-7-7-7-7-7-|
D|--5--5-5-5-5--7--7-7-7-7--8--x-x-x-x-x-x-x-x-x-x-x-|
A|--5--5-5-5-5--7--7-7-7-7--8--x-x-x-x-x-x-x-x-x-x-x-|
E|--3--3-3-3-3--5--5-5-5-5--6--6-6-6-6-6-6-6-6-6-6-6-|

E|----------------------------------------------------------|
B|----------------------------------------------------------|
G|--3-3-3-3-3-3-3-3/5-5-5-5-5-5-5-5-7--7-7-7-7--7--7-7-7-7--|
D|--x-x-x-x-x-x-x-x-x-x-x-x-x-x-x-x-x--x-x-x-x--x--x-x-x-x--|
A|--x-x-x-x-x-x-x-x-x-x-x-x-x-x-x-x-x--x-x-x-x--x--x-x-x-x--|
E|--3-3-3-3-3-3-3-3/5-5-5-5-5-5-5-5-6--6-6-6-6--6--6-6-6-6--|

E|--------------------------------------------------------------------------------------|
B|--11-11-11-11-11-11-11-11-11/13-13-13-13-13-13-13-13-15--15-15-15-15--15--15-15-15-15-|
G|--x--x--x--x--x--x--x--x--x--x--x--x--x--x--x--x--x--x---x--x--x--x---x---x--x--x--x--|
D|--x--x--x--x--x--x--x--x--x--x--x--x--x--x--x--x--x--x---x--x--x--x---x---x--x--x--x--|
A|--10-10-10-10-10-10-10-10-10/12-12-12-12-12-12-12-12-13--13-13-13-13--13--13-13-13-13-|
E|--------------------------------------------------------------------------------------|

E|--------------------------------------------------------------------------------------|
B|--11-11-11-11-11-11-11-11-11/13-13-13-13-13-13-13-13-15--15-15-15-15--15--15-15-15-15-|
G|--x--x--x--x--x--x--x--x--x--x--x--x--x--x--x--x--x--x---x--x--x--x---x---x--x--x--x--|
D|--x--x--x--x--x--x--x--x--x--x--x--x--x--x--x--x--x--x---x--x--x--x---x---x--x--x--x--|
A|--10-10-10-10-10-10-10-10-10/12-12-12-12-12-12-12-12-13--13-13-13-13--13--13-13-13-13-|
E|--------------------------------------------------------------------------------------|

02:42

E|-------------------------------------------------------------------|
B|-------------------------------------------------------------------|
G|--7-7-7-7-7-7-7-7-9-9-9-9-9-9-9-9-10--10-10-10-10--10--10-10-10-10-|
D|--x-x-x-x-x-x-x-x-x-x-x-x-x-x-x-x-x---x--x--x--x---x---x--x--x--x--|
A|--5-5-5-5-5-5-5-5-7-7-7-7-7-7-7-7-8---8--8--8--8---8---8--8--8--8--|
E|-------------------------------------------------------------------|

E|-------------------------------------------------------------------------|
B|-------------------------------------------------------------------------|
G|-12-12-12-12-12-12-12-12/14-14-14-14-14-14-14-14-15-15-15-15-15-15-15-15-|
D|-x--x--x--x--x--x--x--x--x--x--x--x--x--x--x--x--x--x--x--x--x--x--x--x--|
A|-10-10-10-10-10-10-10-10/12-12-12-12-12-12-12-12-13-13-13-13-13-13-13-13-|
E|-------------------------------------------------------------------------|

E|-------------------------|
B|-------------------------|
G|-15-15-15-15-15-15-15-15-|
D|-x--x--x--x--x--x--x--x--|
A|-13-13-13-13-13-13-13-13-|
E|-------------------------|

02:54

E|-------------------------------------------------------------------|
B|-10-----10---------------------------------------------------------|
G|-12b-12-12b------------10-12b-12~-12~-12~-12~-12~-12~-12b----10-12-|
D|----------------10h12-------------------------------------12-------|
A|-------------------------------------------------------------------|
E|-------------------------------------------------------------------|

E|-------------------------------------------------------------------|
B|-13-10-10--10-10-10-10-10-10-10-10---------------------------------|
G|-----------12b------12b------12b---12b-p-10----10-12/--------------|
D|--------------------------------------------12---------------------|
A|-------------------------------------------------------------------|
E|-------------------------------------------------------------------|



E|-------------------------------------------------------------------------|
B|-------------------------------------------------10----------------------|
G|-------10-12-12p10----12-12p10----12-10----12-12-12b---------------------|
D|-10h12-------------12----------12-------12----------12/------------------|
A|-------------------------------------------------------------------------|
E|-------------------------------------------------------------------------|

What I was supposed to play...     What I played by mistake :) ...

E|---------------------------------|---------------------------------------|
B|-10-13-10-13-12----13-12-12b-11--|-10-13-10-13-12-10----10---------------|
G|----------------12---------------|-------------------12-12b-12-----------|
D|---------------------------------|---------------------------------------|
A|---------------------------------|---------------------------------------|
E|---------------------------------|---------------------------------------|

03:11

E|-----------------------------------5-----8h10p8-8------------------------|
B|-13-13-13-13b----------8----10-----6-6----------10-10--------------------|
G|-----------------------10b--12b------5-------------10--------------------|
D|-------------------------------------------------------------------------|
A|-------------------------------------------------------------------------|
E|-------------------------------------------------------------------------|


Have fun...I want to see some video responses! :)





Comments


Popular Ordinary Boys tabs & chords
I Luv You 3 Chords
I Luv You 6 Chords
Just A Song 2 Chords
Its Just A Song Tabs
Maybe Someday Tabs
Skull And Bones Intro Tabs
Thanks To The Girl Tabs
Boys Will Be Boys Ukulele
How Do You Sleep Ukulele
On An Island Ukulele


Song lyrics



↑ Back to top | Tablatures and chords are parodies/interpretations of the original songs. You may use it for private study, scholarship, research or language learning purposes only
© 2014 AZChords.com Contact us | Privacy policy | DMCA | Add/correct tabs | Request tabs | Top 50 tabs