>
 >
Lihim

Lihim Bass Tabs

Orange And Lemons - Lihim chords, tabs, tablatures, lyrics

Guitar lessons | Add/correct | Request | Top 50 tabs Artists:  A B C D E F G H I J K L M N O P Q R S T U V W X Y Z 0-9

Lihim Bass Tabs – Orange And Lemons

CD, Sheet music, Poster

Do you like Lihim? Share with your friends now
Bass TabsChordsTabsTabs v2Ukulele
Intro
|------------------------------|
|------------------------------|
|------------------------------| x2
|-10-10-10--9-9-9---2222222222-|

|---------------------------|
|---------------------------|
|---------------------------| x2
|-7-7-7--5-5-5---2222222222-|

|-------------------------------------|
|-------------------------------------|
|-------------------------------------| 
|-3-2-0-2-3-3-2-0-2-3---66-8-10-10-10-|

|------------|
|------------|
|------------| 
|-55-33-22-0-|

Rep Intro

Stanza 
|-----------------------------------|
|-----------------------------------|
|-----------------------------------| 
|-1010101010101010-2222222-77777777-|

|--------------------------|
|--------------------------|
|--------------------------| 
|-22222222-3333333-2222222-|

|-------------------------------------|
|-------------------------------------|
|-------------------------------------| 
|-77777777-666666-8-101010-55-33-22-0-|

rep stanza

Chorus
|-------------------------------|
|-------------------------------|
|-------------------------------| 
|-1010-99-1010-99-10-9-22-00-20-|

|-----------------------------------|
|-----------------------------------|
|-----------------------------------| 
|-7777777777777777-2222222222222222-|

|-----------------------------------|
|-----------------------------------|
|-----------------------------------| 
|-0000000000000000-3333333333333332023|

Rep Inttro, Stanza and Chorus

Adlib
*|-------------------------------------|
 |-------------------------------------|
 |-------------------------------------| 
 |-222222-7777777755-222222-7777777755-|

|------------------------------------|
|------------------------------------|
|------------------------------------| 
|-000000-5555555533-000000-5555555533|

Rep *

Bridge
|------------------------------------------|
|------------------------------------------|
|------------------------0--42-0-----------| 
|-10--1010--101010--2-22---------2-22-2-22-|

|-------------------------------------------------------|
|-------------------------------------------------------|
|-0-00-000----------------------------------------------| 
|-2-22-222-0-00---000--7-77-7-0-23-33-55-66-80-10-10-10-|

Adlib 2
|------------------------------------------------------------|
|------------------------------------------------------------|
|------------------------------------------------------------| 
|-9-10101010101010101010101010101010101010101010101010101010-|

|----------------------------------|
|----------------------------------|
|----------------------------------| 
|-77777777777777777777777777777777-|

|--------------------------------|
|--------------------------------|
|--------------------------------| 
|-000000000000000000000000000000-|

|------------------|
|------------------|
|------------------| 
|-3333333333333333-|

|----------------------------------|
|----------------------------------|
|----------------------------------| 
|-3-3-55-66-88-8888-10101010101010-|

|------------|
|------------|
|------------| 
|-55-33-22-0-|

Rep Chorus and Intro





Comments


Popular Orange And Lemons tabs & chords
Hanggang Kailan Bass Tabs
Caught In A Line Chords
Moonlane Gardens 1 Chords
Umuwi Ka Na Baby 1 Chords
Yer So Special Chords
Pinoy Ako 1 Tabs
Pinoy Ako 4 Tabs
Shes Leaving Home Ukulele
Strike Whislt The Iron Is Hot Ukulele
Yer So Special Ukulele


Song lyrics



↑ Back to top | Tablatures and chords are parodies/interpretations of the original songs. You may use it for private study, scholarship, research or language learning purposes only
© 2014 AZChords.com Contact us | Privacy policy | DMCA | Add/correct tabs | Request tabs | Top 50 tabs