» » »

Hanggang Kailan Bass tabs (ver.1)

Artists:  A B C D E F G H I J K L M N O P Q R S T U V W X Y Z # 

Hanggang Kailan Bass tabs (ver.1)

Orange And Lemons
Rating:
4/5 (3 votes)

Hard to play? Try these video lessons and learn fast.
                Orange And Lemons
Hangang Kailan
Bass Tab


Intro

G|------------------------------------------------------------------------|
D|--------------------------------------5---5-5-5------55--5-55---5-55----|
A|-6-6-6-6-6-6-6-8------------------3h5---5--5-5---5h7----5-----5-----5---|
E|-------------------1-1-1-1-1-1-1----------------------------------------|

G|----------------------------------------------------------|
D|------------------------------------------5-55---5--------|
A|-6-6-6-6-6-6-6-8------------------3h5---5--5----5-5/8-----|
E|-------------------1-1-1-1-1-1-1------3-------------------|


Verse


G|------------------------------------------------------|
D|---------------------------------------5--------------|
A|-3---3-3-3----3---3-3-3--3h5---------5---5/8----------|
E|----------------------------3--3-3-3------------------|

G|----------------------------------------------------------|
D|--------------------------------------------------------5-|
A|-3---3-3-3----3---3-3-3--3h5----------8-8-8-8---8-5-8-5---|
E|----------------------------3--3-3-3----------------------|



Pre Chorus


G|---------------------------|
B|------7----------7---------|
A|--------7-9p7--9-----------|
E|-12/-----------------------|

G|--------------------------12------------------|
B|----------7h9-10---9h10h12--------------------|
A|-7h9-7h9---------10---------------------------|
E|----------------------------10h12-10-13/15\13-|

G|-----------------------------------------|
B|--------------7-------------------7---7--|
A|------------5---5--7--5-5-5-5-7-----5----|
E|-3---4-4-4-----------------------5-------|

G|---4h5p4-------------------------|
B|---------5-3h5-------------------|
A|-5--------------6-6-6-6--8-8-8-8-|
E|---------------------------------|


Chorus


G|------------------------------------------------------|
B|----------------------------5-----------5--3-3-3-3h5--|
A|-3--3-3-3--3h5------------5-----------5---------------|
E|-----------------3--3-3-3-----3-3-3-3-----------------|


G|------------------------------------------------------|
B|----------------------------5/7\5--5-7-8-7-5----------|
A|-3--3-3-3--3h5------------5------------------6--------|
E|-----------------3--3-3-3----------------------3------|

G|---------------------------|
B|------------5--------------|
A|----------5---5/8----------|
E|-3-3-3---------------------|


Verse


G|------------------------------------------------------|
D|---------------------------------------5--------------|
A|-3---3-3-3----3---3-3-3--3h5---------5---5/8----------|
E|----------------------------3--3-3-3------------------|

G|----------------------------------------------------------|
D|--------------------------------------------------------5-|
A|-3---3-3-3----3---3-3-3--3h5----------8-8-8-8---8-5-8-5---|
E|----------------------------3--3-3-3----------------------|


Pre Chorus


G|---------------------------|
B|------7----------7---------|
A|--------7-9p7--9-----------|
E|-12/-----------------------|

G|--------------------------12------------------|
B|----------7h9-10---9h10h12--------------------|
A|-7h9-7h9---------10---------------------------|
E|----------------------------10h12-10-13/15\13-|

G|-----------------------------------------|
B|--------------7-------------------7---7--|
A|------------5---5--7--5-5-5-5-7-----5----|
E|-3---4-4-4-----------------------5-------|

G|---4h5p4-------------------------|
B|---------5-3h5-------------------|
A|-5--------------6-6-6-6--8-8-8-8-|
E|---------------------------------|


Final Chorus


G|------------------------------------------------------|
B|----------------------------5-----------5--3-3-3-3h5--|
A|-3--3-3-3--3h5------------5-----------5---------------|
E|-----------------3--3-3-3-----3-3-3-3-----------------|


G|------------------------------------------------------|
B|----------------------------5/7\5--5-7-8-7-5----------|
A|-3--3-3-3--3h5------------5------------------6--------|
E|-----------------3--3-3-3----------------------3------|

G|---------------------------|
B|---------------------------|
A|-----------8-8-8-8---------|
E|-3-3-3-3-------------------|

G|------------------------------------------------------------------|
B|--------------------------------------------------5-5-5-5---------|
A|-3-3-3-3-3-3-3-3-------------------------------/5---------8-8-8-8-|
E|------------------3-3-3-3-3-3-3-0--3-3-3-3-3-3--------------------|

G|------------------------------------------------------------------|
B|------------------------------------------------------------------|
A|-3-3-3-3-3-3-3-3-------------------------------3h5--------8-8-8-8-|
E|------------------3-3-3-3-3-3-3-0--3-3-3-3-3-3----3-3-3-3---------|

G|------------------------------------------------------------------------|
D|--------------------------------------5---5-5-5------55--5-55---5-55----|
A|-6-6-6-6-6-6-6-8------------------3h5---5--5-5---5h7----5-----5-----5---|
E|--------------------1-1-1-1-1-1-1---------------------------------------|

G|--------------------------|
B|--------------------------|
A|-6-6-6-6-6-6-6-8(let ring)|
E|--------------------------|

G|---------------------------------------------------|
B|---------------------------5(let ring)-5(let ring)-|
A|-------------------------5------------5------------|
E|-3(let ring)-3(let ring)---------------------------|

Outro

G|------------------|
B|--5(let ring)-----|
A|-5----------------| x4
E|------------------|


Paki email nalang ako kung may mali... 90% yan yun hehe ^_^
            
Hard to play? Try these video lessons and learn fast. | Correct




comments powered by Disqus
↑ Back to top | Tablatures and chords are parodies/interpretations of the original songs. You may use it for private study, scholarship, research or language learning purposes only