» » »

Lihim Tabs (ver.1)

Artists:  A B C D E F G H I J K L M N O P Q R S T U V W X Y Z # 

Lihim Tabs (ver.1)

Orange And Lemons
Rating:
4/5 (11 votes)

Tabs too difficult? Try these video lessons and learn fast.
                LIHIM
Strike whilst The Iron Is Hot

-arranged by: Kathy Bacani
Have fun! Dinededicate ko ang kantang to sa aking one true love na si......
-message: Ito ang favorite song ko! Gling talaga...Ganda ng message ng kanta...
HERE GOES!

[INTRO] 
D-A-F#m (2x)
Bm-A-F#m (2x)
Bm-A-G-A-Bm
Bm-A-G-A-Bb-D
AA-GG-F#mF#m

e|------------|		|-----------|
B|---3---2----|		|--3----2---|
G|----2---2---| (2x)	|---2----2--| (2x)
D|-0---0----4-|		|---------4-|
A|------------|		|-2---2-----|
E|------------|		|-----------|

e|-------------------------------0--2-----------------|
B|--------------------------3--3-----3----------------|
G|-2h4-2-0-2-4--2h4-2-0-2-3-----------2---------------|
D|----------------------------------------------------|
A|---------------------------------------0-0----------|
E|-------------------------------------------3-3-2-2--|

[VERSE 1]
 D  A	    Bm	   A
Di na malilimutan pa
	  G	     F#m	   Bm
Sa bawat sandaling ako'y iyong hagkan
      Bb         D  AA-GG-F#F#
Ang 'yong mga halik
D  A		    Bm	   A
Sana'y huwag nang matapos pa
	G	  F#m		  Bm
aking nadarama sa tuwing kapiling ka
 Bb   	    D   AA-GG-F#mF#m
Ako'y nasasabik


[REFRAIN]
D	      F#m
Sa'yo lamang ilalaan
	  Bm			 G
ang isang    ligayang walang hanggan
      Em      G
Kahit pa nagsasalo tayo
     Em-A
Sa isang  kasalanan... (Repeat Intro)


[VERSE 2] do Verse 1 chords
Bihag tayo ng panahon
at pagkakataong puno ng pangambang
ika'y mawalay pa
Sana'y huwag nang matapos pa
aking nadarama sa tuwing kapiling ka
Ako'y nasasabik

[REPEAT REFRAIN]


D	DM7
Di na mahalaga
Bm
  Ang sasabihin nila
G
  Basta't may pag-ibig
Em	   G-A-A#m
  Sa 'ting   dalawa



e|-----------------|
B|-7-8-7-----------|
G|-7----9-----7----| (2x)
D|-7------7h9------|
A|-----------------|
E|-----------------|

e|--------------------^7-------------------------|
B|----------------^7--^7------7--7-9---11-11~----|
G|-6h7-9-7-6---7--^7--^7--7h9--9-----------------|
D|-----------9-----------------------------------|
A|-----------------------------------------------|
E|-----------------------------------------------|


e|-------------------------------------------------------9-9-10-10---|
B|-------------------12-10---------------------------12--------------|
G|-9-11-9h11-12-11-9-------12-9~---9-11-9h11-12-11-9-----------------|
D|-------------------------------------------------------------------|
A|-------------------------------------------------------------------|
E|-------------------------------------------------------------------|


e|--------15-14-----------15-14-------------------------------|
B|--------------15--------------15----8-8-10-10-11-11-10-10---|
G|------------------------------------------------------------|
D|----12---------------12-------------------------------------|
A|------------------------------------------------------------|
E|-15---------------15----------------------------------------|


e|-------------------10h12h14--10---15-14-15-----15-14-15s7--|
B|-8h10h11--11h13h15-------------------------12--------------|
G|-----------------------------------------------------------|
D|-----------------------------------------------------------|
A|-----------------------------------------------------------|
E|-----------------------------------------------------------|

(do refrain chords)
Sa 'yo lamang ilalaan
ang isang
pagsuyong walang hanggan
kahit pa nagsasalo tayo
sa isang
(play intro riffs)
Kasalanan...
Kasalanan...
            
Tabs too difficult? Try these video lessons and learn fast.




comments powered by Disqus
↑ Back to top | Tablatures and chords are parodies/interpretations of the original songs. You may use it for private study, scholarship, research or language learning purposes only