» » »

El Capitan Bass tabs (ver.2)

Artists:  A B C D E F G H I J K L M N O P Q R S T U V W X Y Z # 

El Capitan Bass tabs (ver.2)

Opm
Rating:
0/5 (0 votes)

Hard to play? Try these video lessons and learn fast.
                
Verse
G:|--------------
D:|---------33-5-
A:|---55-33------
E:|-3------------

Verse alteration
G:|--------------
D:|---------3131-
A:|---55-33------
E:|-3------------

Ending Slide after 
1 verse of the main 
riff
G:|--------------
D:|--------------
A:|-5/8\---------
E:|--------------

The is the best song Ever
            
Hard to play? Try these video lessons and learn fast. | Correct




comments powered by Disqus
↑ Back to top | Tablatures and chords are parodies/interpretations of the original songs. You may use it for private study, scholarship, research or language learning purposes only