» » »

El Capitan Bass tabs (ver.1)

Artists:  A B C D E F G H I J K L M N O P Q R S T U V W X Y Z # 

El Capitan Bass tabs (ver.1)

Opm
Rating:
4/5 (2 votes)

Hard to play? Try these video lessons and learn fast.
                OPM
Menace To Sobriety

G----------------0-|
D--------------2---|
A---5-5-3-3-3------|
E-3----------------|

G----------------0-|
D--------------2---|
A---5-5-3-3-3------|
E-3----------------|

G----------------0-|
D--------------2---|
A---5-5-3-3-3------|
E-3----------------|
            
Hard to play? Try these video lessons and learn fast. | Correct




comments powered by Disqus
↑ Back to top | Tablatures and chords are parodies/interpretations of the original songs. You may use it for private study, scholarship, research or language learning purposes only