>
 >
 >
Brighter Side 1

Brighter Side 1 Guitar Tabs

Opm - Brighter Side 1 chords, tabs, tablatures, lyrics

Guitar lessons | Add/correct | Request | Top 50 tabs Artists:  A B C D E F G H I J K L M N O P Q R S T U V W X Y Z 0-9

Brighter Side 1 Guitar Tabs – Opm

CD, Sheet music, Poster

Do you like Brighter Side 1? Share with your friends now
Bass TabsChordsTabsTabs v2
-------------------------------------------------------------------------------
                             BRIGHTER SIDE - OPM
-------------------------------------------------------------------------------

Tuning: Standard (EADGBe)

Chord Reference
---------------
  Dbm: 446654
    A: 577655
Esus2: 779977
    B: 799877
   Ab: 466544
 


INTRO

            Dbm A          Esus2 B
Do do do do do    do do do do 

            Dbm A          Esus2 B
Na na na na na    na na na na    oh oh


VERSE 1

    Dbm        A                   Esus2
Sometimes I forget that you're not here 

        B                 Dbm            A
Can't believe it's been a year Since you flew away

      Esus2                B
And I never got to say goodbye 

     Dbm           A                    Esus2
Good times Hangin' out til the break of dawn

             B              Dbm
Listening to Bob And singin along 

             A                     Esus2
Every little thing it's gonna be a

           B
It's gonna be all right...


PRE CHORUS

A Ab
     no no no


CHORUS

Dbm             A
    I know that you're gonna fly

Esus2                           B
      Somewhere brighter on the other side

Dbm                       A
    And one day I'm gonna be there too

          Esus2                        B
Where the       sun is shining and the water's blue

Dbm             A
    I know that you're gonna fly

Esus2                           B
      Somewhere brighter on the other side


Dbm                                      A
    I know you're somewhere where you're finally free

       Esus2               B
You'll always be a part of me

            A                         Ab
Yeah you'll always be a part of me oh yeah

                        Dbm
Like the moon is to the sea 


SOLO

e|--------------------|------------------|-----------------------------------|
B|--------------------|------------------|--12b14--12b14---/14---/14--14-16--|
G|----9-----9-11-9-11-|-11b13-11---9-8---|-----------------------------------|
D|-11----11-----------|------------------|-----------------------------------|
A|--------------------|------------------|-----------------------------------|
E|--------------------|------------------|-----------------------------------|

e|-------------------------------------------------------------------|-------|
B|--16h17p16-14-16-14------------------------------------------------|-------|
G|---------------------16---13---------------------------------------|-------|
D|-------------------------------16-14--13-11--14-16h18p16-14/16--14-|-13----|
A|-------------------------------------------------------------------|-------|
E|-------------------------------------------------------------------|-------|


VERSE 2

     Dbm                  A                    Esus2
They say you don't know A good thing till it's gone

             B           Dbm
But I got to say they're wrong

                  A             Esus2           B
I knew you were a good friend A good friend all along

  Dbm      A                    Esus2
I wish the world wouldn't be so cold

      B                     Dbm
As to take such a beautiful soul

      A              Esus2               B
But despite it all I know we gotta carry on


PRE CHORUS

A Ab
     no no no


CHORUS

I know that you're gonna fly
Somewhere brighter on the other side 
And one day I'm gonna be there too
Where the sun is shining and the water's blue

I know that you're gonna fly
Somewhere brighter on the other side 
I know you're somewhere where you're finally free
And you'll always be a part of me
Yeah you'll always be a part of me oh yeah
Like the moon is to the sea 


BRIDGE

e|---------------------------------------------------------------------------|
B|---------------------------------------------------------------------------|
G|---------4---4---6/7-------6---6--------7-------7--------------------------|
D|---------4---4---6/7-------6---6--------7-------7--------------------------|
A|---------2---2---4/5-------4---4--------5-------5--------------------------|
E|---------------------------------------------------------------------------|
           Db5 Db5 Eb5/E5    Eb5 Eb5      E5      E5
If I could rewind  time Then I'd like to let you know
Just one thing before your time go 
That every moment you were living was a blessing to me 
And I saw inside of you things that others couldn't see
Now people put you down for the way that you lived 
But those people never knew you the way that I did
Don't be ashamed of who you were of how you died
I know you just wanted to find the brighter side


CHORUS

I know that you're gonna fly
Somewhere brighter on the other side 
And one day I'm gonna be there too
Where the sun is shining and the water's blue

I know that you're gonna fly
Somewhere brighter on the other side
I know you're somewhere where you're finally free
And you'll always be a part of me


OUTRO

e|--------------------|--------------|-----------------------|---------------|
B|--------------12----|--------------|---------------12------|---------------|
G|-13-----13-14----14-|-13--11-9-----|-13-----13--14-----14--|-13--11-9------|
D|----14--------------|----------13--|----14-----------------|-----------13--|
A|--------------------|--------------|-----------------------|---------------|
E|--------------------|--------------|-----------------------|---------------|
   Dbm       A          Esus2    B     Dbm        A            Esus2     B

e|--------------------|--------------|-----------------------|---------------|
B|--------------------|-12-----------|---------------12------|---------------|
G|-13-----13-14-13-14-|----14-13--11-|-13-----13--14-----14--|-13--11-9------|
D|----14--------------|--------------|----14-----------------|-----------13--|
A|--------------------|--------------|-----------------------|---------------|
E|--------------------|--------------|-----------------------|---------------|
   Dbm       A          Esus2    B     Dbm        A            Esus2     B
   I know that you're gonna fly        I know that you're gonna fly

e|---------------------|-------------|
B|---------------------|-------------|
G|---------------------|-------------|
D|-7-----7---9----7----|-6-----10----|
A|---------------------|-------------|
E|---------------------|-------------|


| /  slide up
| h  hammer-on
| p  pull-off
===============================================================================





Comments


Popular Opm tabs & chords
Heaven Is A Halfpipe Bass Tabs
Heavan Is A Halfpipe Intro Chords
Heaven Is A Halfpipe 2 Chords
Better Daze 1 Tabs
Brighter Side Tabs
Dealearman Tabs
Fish Out Of Water 1 Tabs
Heaven Is A Halfpipe 1 Tabs
War On Drugs Tabs
Heavan Is A Halfpipe Intro Ukulele


Song lyrics



↑ Back to top | Tablatures and chords are parodies/interpretations of the original songs. You may use it for private study, scholarship, research or language learning purposes only
© 2014 AZChords.com Contact us | Privacy policy | DMCA | Add/correct tabs | Request tabs | Top 50 tabs