» » »

Brighter Side Bass tabs (ver.1)

Artists:  A B C D E F G H I J K L M N O P Q R S T U V W X Y Z # 

Brighter Side Bass tabs (ver.1)

Opm
Rating:
0/5 (0 votes)

Tabs too difficult? Try these video lessons and learn fast.
                Intro/Chorus
G]---------1---------------------------I
D]-------2-----------222-1-------------I
A]--4--4------00-0----------4--22-2----I
E]-------------------------------------I

Build-Up
G]----------------I
D]----------------I
A]----------------I
E]--5~-----4~-----I

Verse
G]----------------------------------I
D]----------------------------------I
A]--4---4--4--00-0------------22-2--I
E]------------------0---0--0--------I

Outro
G]------------------------I
D]------------------------I
A]------------------------I
E]--5~----7--5-4~---8~----I


And there we go.
            
Tabs too difficult? Try these video lessons and learn fast.




comments powered by Disqus
↑ Back to top | Tablatures and chords are parodies/interpretations of the original songs. You may use it for private study, scholarship, research or language learning purposes only