» » »

Operator, Soulcrusher Tabs (ver.1)

Artists:  A B C D E F G H I J K L M N O P Q R S T U V W X Y Z # 

Soulcrusher Tabs (ver.1)

Operator Tabs
Rating:
3/5 (8 votes)
Soulcrusher lessons Tabs too difficult? Try these video lessons and learn fast
                -------------------------------------------------------------------------------
                             SOUL CRUSHER - Operator
-------------------------------------------------------------------------------

Tuning: Drop D DADGBE

INTRO
e|---------------------------------------------------------------------------|
B|---------------------------------------------------------------------------|
G|---------------------------------------------------------------------------|
D|--0--2--3--5----5p3p0------------------------------------------------------|
A|---------------------------------------------------------------------------|
D|------------------------0--0h3b-0------------------------------------------|x3 

e|---------------------------------------------------------------------------|
B|---------------------------------------------------------------------------|
G|---------------------------------------------------------------------------|
D|--0--2--3--5--3/7---3------------------------------------------------------|
A|---------------------------------------------------------------------------|
D|---------------------------------------------------------------------------|

e|---------------------------------------------------------------------------|
B|---------------------------------------------------------------------------|
G|---------------------------------------------------------------------------|
D|---------------------------------------------------------------------------|
A|--12-0-0-10-0-0-12-0-0-10-13-15-12-----------------------------------------|
D|--12-0-0-10-0-0-12-0-0-10-13-15-12-----------------------------------------|x4

VERSE
   pm--------------------------------|
e|---------------------------------------------------------------------------|
B|---------------------------------------------------------------------------|
G|---------------------------------------------------------------------------|
D|---------------------------------------------------------------------------|
A|--12-0-0-10-0-0-12-0-0-7-0-5-0-3-0-----------------------------------------|
D|--12-0-0-10-0-0-12-0-0-7-0-5-0-3-0-----------------------------------------|x3
He's an innovator..........

e|---------------------------------------------------------------------------|
B|---------------------------------------------------------------------------|
G|---------------------------------------------------------------------------|
D|---------------------------------------------------------------------------|
A|--12-0-0-10-0-0-12-0-0-10-13-15-12-----------------------------------------|
D|--12-0-0-10-0-0-12-0-0-10-13-15-12-----------------------------------------|x3
So get your head out your ass now.........

e|---------------------------------------------------------------------------|
B|---------------------------------------------------------------------------|
G|---------------------------------------------------------------------------|
D|---------------------------------------------------------------------------|
A|--12-0-0-10-0-0-12-0-0-10-13-15-15-----------------------------------------|
D|--12-0-0-10-0-0-12-0-0-10-13-15-15-----------------------------------------|

CHORUS
e|---------------------------------------------------------------------------|
B|---------------------------------------------------------------------------|
G|---------------------------------------------------------------------------|
D|---------------------------------------------------------------------------|
A|--5-10-12--0-7-0-5-0-------------------------------------------------------|
E|--5-10-12--0-7-0-5-0-------------------------------------------------------|x4
Soul Crusher, no other...............

BRIDGE
e|---------------------------------------------------------------------------|
B|---------------------------------------------------------------------------|
G|--2-5-7--10-9-5-2----------------------------------------------------------|
D|---------------------------------------------------------------------------|
A|---------------------------------------------------------------------------|
E|---------------------------------------------------------------------------|x2

e|---------------------------------------------------------------------------|
B|---------------------------------------------------------------------------|
G|--5---5-7------------------------------------------------------------------|
D|---5-----5---5-7-----------------------------------------------------------|
A|-----------5---------------------------------------------------------------|
E|---------------------------------------------------------------------------|


e|---------------------------------------------------------------------------|
B|--13-12-10--6/10-----13-12-10--5/10----------------------------------------|
G|---------------------------------------------------------------------------|
D|---------------------------------------------------------------------------|
A|---------------------------------------------------------------------------|
E|---------------------------------------------------------------------------|x4


| /  slide up
| \  slide down
| h  hammer-on
| p  pull-off
| ~  vibrato
| +  harmonic
| x  Mute note
===============================================================================
            

comments powered by Disqus
↑ Back to top | Operator Tabs for Soulcrusher. Lyrics for acoustic guitar and electric guitar. Tablatures and chords are parodies/interpretations of the original songs. You may use it for private study, scholarship, research or language learning purposes only