» » »

Operator, Soulcrusher Tabs (ver.2)

Artists:  A B C D E F G H I J K L M N O P Q R S T U V W X Y Z # 

Soulcrusher Tabs (ver.2)

Operator Tabs
 Rating:
4.4/5 (7 votes)
Soulcrusher lessons Tabs too difficult? Try these video lessons and learn fast
1
                b=bend r=release ~=let it ring m=palm mute

intro       |------------------------|x3     |------------------------|
(part one)  |------------------------|       |------------------------|
            |------------------------|       |------------------------|
 (light     |-------5~~--------------|       |-------5~~-----7~~~5~~~-|
distortion) |-5-7-8----8r7r5---------|       |-5-7-8----8r7r5---------|
            |----------------0---b3r-|       |------------------------|

                                  

  part two   |---------------------------|x4
  (heavy     |---------------------------|
  distrtion) |---------------------------|
             |---------------------------|
             |-5-xx-3-xx-5-xx-3-xx-7-8-7-|
             |-5-xx-3-xx-5-xx-3-xx-7-8-7-|


verse   |-------------------------------|x4
part 1  |-------------------------------|
        |-------------------------------|
        |-------------------------------|
        |-3-xx-3-xx-3-x-/5-xx-5-xx-5-x\-|
        |-3-xx-3-xx-3-x-/5-xx-5-xx-5-x\-|
          m mm m mm m m  m mm m mm m m


verse   |---------------------------|x4
part 2  |---------------------------|
        |---------------------------|
        |---------------------------|
        |-5-xx-3-xx-5-xx-3-xx-7-8-7-|
        |-5-xx-3-xx-5-xx-3-xx-7-8-7-|


corus         |-------------|
(play around  |-------------|
 lyrics)      |-------------|
              |-------------|
              |-3~5~0~~~~~~-|
              |-3~5~0~~~~~~-|

bridge
(play around lyrics) 

  1 |------------------------------|x2  2|-----------------|
    |------------------------------|     |-----------------|
    |-2-5-7~~~~~~~~10-9-5-2~~~~~~~-|     |-5---5-7---------|
    |------------------------------|     |---5-----5---5-7-|
    |------------------------------|     |-----------5-----|
    |------------------------------|     |-----------------|

    3 |-8-7-5-0---3b-8-7-5-----3b-|
      |--------------------3------|
      |---------------------------|

that's pretty much it. i might have missed some because i learned
            
Submit corrections

comments powered by Disqus
↑ Back to top | Operator Tabs for Soulcrusher. Lyrics for acoustic guitar and electric guitar. 1 Tablatures and chords are parodies/interpretations of the original songs. You may use it for private study, scholarship, research or language learning purposes only