» » »

Unity Bass tabs (ver.2)

Artists:  A B C D E F G H I J K L M N O P Q R S T U V W X Y Z # 

Unity Bass tabs (ver.2)

Operation Ivy
Rating:
0/5 (0 votes)

Hard to play? Try these video lessons and learn fast.
                Intro
|------------------------------------------------------|
|------------------------------------------------------|
|---------------5------------------7-----------------5-|
|5-----------------------------------------------------|
  There's a war coming down between my brothers tonight

|------------------------------------------------------|
|------------------------------------------------------|
|----------------5----------------7~----------------5~-|
|5-----------------------------------------------------|
  I don't want no war___________going down, goin down tonight

Chorus
|------------------------------------------------------|
|------------------------------------------------------|
|---------------5--5---------------7--7-7---------5--5-|
|5--5--5-----------------------------------------------|

Verse
|------------------------------------------------------|
|------------7-----------------4444--------------------|
|---4--7--5-----5------5---7---------7--5--------------|
|5------------------0----------------------------------|

Bridge
|------------------------------------------------------|
|------------------------------------------------------|
|---------------5-5-5---------7---7-7-7---------5-5-5--|
|5---5-5-5---------------------------------------------|


Intro
Chorus x2
Verse x2
Chorus x2
Verse x2
Chorus x2
Verse x2
Chorus x2
Bridge
(Drums Only)
Chorus x2
            
Hard to play? Try these video lessons and learn fast. | Correct




comments powered by Disqus
↑ Back to top | Tablatures and chords are parodies/interpretations of the original songs. You may use it for private study, scholarship, research or language learning purposes only