>
 >
Sound System

Sound System Bass Tabs

Operation Ivy - Sound System chords, tabs, tablatures, lyrics

Guitar lessons | Add/correct | Request | Top 50 tabs Artists:  A B C D E F G H I J K L M N O P Q R S T U V W X Y Z 0-9

Sound System Bass Tabs – Operation Ivy

CD, Sheet music, Poster

Do you like Sound System? Share with your friends now
Bass TabsBass Tabs v2ChordsTabsTabs v2Tabs v3Ukulele
-------------------------------------------------------------------------------
			     Sound System - Operation Ivy
-------------------------------------------------------------------------------


Tuning: Standard (EADG)

I've fixed this tab up, send me e-mails if it's wrong but Im 99.9% sure it isn't. 
Also if you dont get the tab send me an e-mail.

This song is great! 
Just listen to the song to pick up the timing.

Order of song:

Intro
Chorus  (x4)
Verse   (x2)
Chorus  (x4)
Verse   (x2)
Chorus  (x2)
No Bass (x4)
Sound System part
Skanking part
Chorus  (x4)
Drum Roll, No bass (x4)
Chorus  (x4)
Sound System part 

Intro:

G|-----------------------------------------------------------------5-4-2--|
D|-------------------0-0-0-0-0----------------------------0-0-0-0-0-------|
A|-0-0-0-0-0-2-3-4-------------4-3-2---0-0-0-0-0-2-3-4--------------------|
E|------------------------------------------------------------------------|

G|--------------------------------------|
D|-----------------------------------2--|
A|-0-0-0-0-0-2-3-4---0-0-0-0-0-0-0-4----|
E|--------------------------------------|

Chorus:

G|-----------------------------5-4-2--|
D|-------------------0-0-0-0-0--------|  
A|-0-0-0-0-------4--------------------|   
E|---------3-3-3----------------------|

Verse:

G|-------------------------------------------------------|
D|-------------------------------------------------------|  
A|--0--0----------0--0--------------------------------034|    
E|--------0--0-3--------3-0-5-0-----3333-2222----00000---|    
                                                                
G|-------------------------------------2222-00----------|     
D|--0--0-------------------------0--0---------44-22-00--|     
A|--------3--2---3--2--0-0-3-0--------------------------|   
E|------------------------------------------------------|

Sound System:

Play Open A string everytime Jesse says SOUND, SYS, TEM
End with one last A note

Skanking to the rhythm of the music by my side:

G|-----------------------|     
D|-----------------------|     
A|---0-0-0-0-0-0-0-0-----|   
E|-----------------------|


Sound System:

Play Open A string everytime Jesse says SOUND, SYS, TEM
End with one last A note



| /  slide up
| \  slide down
| h  hammer-on
| p  pull-off
| ~  vibrato
| +  harmonic
| x  Mute note
===============================================================================





Comments


Popular Operation Ivy tabs & chords
One Of These Days 3 Bass Tabs
Room Without A Window Bass Tabs
The Crowd Bass Tabs
Knowledge 3 Chords
Caution Tabs
Gonna Find You Tabs
Healthy Body Tabs
Knowledge 1 Tabs
Room Without A Window Tabs
Yelling In My Ear Ukulele


Song lyrics



↑ Back to top | Tablatures and chords are parodies/interpretations of the original songs. You may use it for private study, scholarship, research or language learning purposes only
© 2014 AZChords.com Contact us | Privacy policy | DMCA | Add/correct tabs | Request tabs | Top 50 tabs