» » »

Junkie's Runnin' Dry Bass tabs (ver.3)

Artists:  A B C D E F G H I J K L M N O P Q R S T U V W X Y Z # 

Junkie's Runnin' Dry Bass tabs (ver.3)

Operation Ivy
Rating:
0/5 (0 votes)

Hard to play? Try these video lessons and learn fast.
                Intro
G|------------------------------|
D|----------------------0-2-0---|
A|----------------3-3-3-------3-|
E|1-1-1-1-3-3-3-3---------------|   x3

G|-----------------------------|
D|3-3-3-3----------------------|
A|----------------3-3-3-3-3--3-|
E|--------3-3-3-3--------------|

Verse
G|--------------------------------|
D|--------------------------------|
A|----------------3-3-3-1---------|
E|3-3-3-3-1-1-1-1---------3-3-3-1-| x4

Pre-Chorus
G|--------------3-----------------|
D|------------3---------3-5-5-3---|
A|1-1-1-1-1-3---------5---------5-|
E|----------------3-3-------------| x2

Chorus
G|--------------------------------|
D|--------------------------------|
A|----------------3-3-1-1-0-0-1-0-|
E|1-1-1-1-3-3-3-3-----------------| x3

G|------------------------------|
D|------------------------------|
A|----------------3-3-3-3-3-----|
E|1-1-1-1-3-3-3-3---------------|


Verse
Pre-Chorus
Chrous

Guitar solo
G|--------------------------------|
D|--------------------------------|
A|----------------3-3-3-1---------|
E|3-3-3-3-1-1-1-1---------3-3-3-1-| x2

Bridge
G|-----------------------|
D|-----------------------|
A|----------3-3-31-------|
E|3---3-1----------3--1--| x4
(I grow, up too slow...)

G|------3-------3-----------------|
D|----3-------3---------3-5-5-3---|
A|1-3-----1-3---------5---------5-|
E|----------------3-3-------------|

G|--------------------------------|
D|--------------------------------|
A|1-1-1-1-1-0-1-0-----------------|
E| ---------------3-3-3-3-3-3-3-3-| x2


Chorus

End

That's about it. Not really that tough, just a little quick at some points
            
Hard to play? Try these video lessons and learn fast. | Correct




comments powered by Disqus
↑ Back to top | Tablatures and chords are parodies/interpretations of the original songs. You may use it for private study, scholarship, research or language learning purposes only