>
 >
Healthy Body 1

Healthy Body 1 Bass Tabs

Operation Ivy - Healthy Body 1 chords, tabs, tablatures, lyrics

Guitar lessons | Add/correct | Request | Top 50 tabs Artists:  A B C D E F G H I J K L M N O P Q R S T U V W X Y Z 0-9

Healthy Body 1 Bass Tabs – Operation Ivy

CD, Sheet music, Poster

Do you like Healthy Body 1? Share with your friends now
Bass TabsBass Tabs v2Tabs
-------------------------------------------------------------------------------
			     HEALTHY BODY - Operation Ivy
-------------------------------------------------------------------------------

***NOTE******NOTE******NOTE******NOTE******NOTE******NOTE******NOTE******NOTE**
This is the 2007 album version.
The original may be different and thats why noone could post a proper one yet.
oh.. and LISTEN and PLAY before you comment or rate.. and have fun.. cheers
xxSID
***NOTE******NOTE******NOTE******NOTE******NOTE******NOTE******NOTE******NOTE**

Tuning: standard

H - half note
Q - quarter note
E - 8th note

/ -  slide into from below or out of upwards
\ -  slide into from above or out of downwards

     E  E  Q    E  E  Q       Q    Q    Q    Q       E  E  E  E  E  E  E  E   
G||------------------------|----------------------|--------------------------|
D||------------------------|----------------------|--------------------0--0--|
A||--5----------5----------|--5----3----2----0----|--------2--2--3--3--------|
E||------------------------|----------------------|--3--3--------------------|


  E  E  E  E  E  E  E  E     E  E  E  E  E  E  E  E   
--------------------------|--------------------------|
--------2--2--3--3--4--4--|--5--5--3--3--2--2--0--0--|
--3--3--------------------|--------------------------|
--------------------------|--------------------------|


  E  E  E  E  E  E  E  E     E  E  E  E  E  E  E  E   
--------------------------|--------------------------|
--------------------------|--------------------0--0--|
--3--3--2--2--0--0--2--2--|--------2--2--3--3--------|
--------------------------|--3--3--------------------|


  E  E  E  E  E  E  E  E     E  E  E  E  E  E  E  E     Q    Q    Q     Q     
--------------------------|--------------------------|-----------------------|
--------2--2--3--3--4--4--|--5--5--3--3--2--2--0--0--|-----------------------|
--3--3--------------------|--------------------------|------------7\----0----|
--------------------------|--------------------------|--3--------------------|


  Q    Q    Q    Q       Q    Q    Q    E  E     Q    Q    Q    Q     
----------------------|-----------------------|----------------------|
------------0----2----|------------0-------0--|----------------------|
-------2--------------|-------2---------2-----|--3----2----0----2----|
--3-------------------|--3--------------------|----------------------|


  E  E  E  E  E  E  E  E     Q    Q    Q    Q       E  E  E  E  Q    Q     
--------------------------|----------------------|------------------------|
--0-----0-----0-----------|------------0----2----|--5--5--3--3--2---------|
-----------------3--2--0--|-------2--------------|-------------------5----|
--------------------------|--3-------------------|------------------------|


  Q    Q    Q    Q       E  E  E  E  E  E  E  E     Q    E  E  E  E  Q     
----------------------|--------------------------|------------------------|
----------------------|--0-----0-----0-----------|-------2--2--3--3--5----|
--3----2----0----2----|-----------------3--2--0--|--3---------------------|
----------------------|--------------------------|------------------------|


  Q    E  E  E  E  Q       Q    Q    Q    Q       Q    Q    Q    Q     
------------------------|----------------------|----------------------|
-------2--2--3--3--5----|--5----3----2----0----|-----------------0----|
--3---------------------|----------------------|-------2----3---------|
------------------------|----------------------|--3-------------------|


  Q    E  E  Q    E  E     E  E  E  E  Q    E  E     E  E  Q    E  E  Q     
------------------------|-------------------------|------------------------|
------------------------|-------------------------|------------------------|
--3----3--0-------------|--3--3--3--0----------3--|--5----------5----------|
-------------3----3--0--|--------------3----3-----|------------------------|


  Q    Q    Q    Q       Q    E  E  E  E  E  E     Q    E  E  E  E  Q     
----------------------|-------------------------|------------------------|
----------------------|-------------------------|-------5--5--------7----|
--5----3----2----0----|-------5--5--5--5--5--5--|--3----------5--5-------|
----------------------|--3----------------------|------------------------|


  Q    E  E  E  E  E  E     Q    E  E  E  E  Q       Q    E  E  E  E  E  E   
-------------------------|------------------------|-------------------------|
-------------------------|-------5--5--------7----|-------------------------|
-------5--5--5--5--5--5--|--3----------5--5-------|-------5--5--5--5--5--5--|
--3----------------------|------------------------|--3----------------------|


  Q    E  E  E  E  Q       H        H           Q    H        Q     
------------------------|--------------------|---------------------|
-------5--5--------7----|--------------------|---------------------|
--3----------5--5-------|-----------3--------|--5------------------|
------------------------|--3-----------------|---------------------|


  Q    E  E  E  E  Q       Q    Q    Q    Q       Q    E  E  E  E  E  E   
------------------------|----------------------|-------------------------|
-------------0--0--2----|-------2---------4----|-------------0--0--2--2--|
-------2--2-------------|--3---------5---------|-------2--2--------------|
--3---------------------|----------------------|--3----------------------|


  E  E  E  E  E  E  E  E     Q    E  E  E  E  E  E     E  E  E  E  E  E  E  E   
--------------------------|-------------------------|--------------------------|
--------2--2--3--3--5--5--|-------------0--0--2--2--|--------2--2--3--3--5--5--|
--3--3--------------------|-------2--2--------------|--3--3--------------------|
--------------------------|--3----------------------|--------------------------|


  E  E  E  E  E  E  E  E     Q    Q     Q     Q       Q    Q    Q    Q     
--------------------------|------------14\---------|----------------------|
--------------------------|------------------------|------------0----2----|
--5--5--3--3--2--2--0--0--|--5----------------5----|-------2--------------|
--------------------------|------------------------|--3-------------------|


  Q    Q    Q    E  E     Q    Q    Q    Q       E  E  E  E  E  E  E  E   
-----------------------|----------------------|--------------------------|
------------0-------0--|----------------------|--0-----0-----0-----------|
-------2---------2-----|--3----2----0----2----|-----------------3--2--0--|
--3--------------------|----------------------|--------------------------|


  Q    Q    Q    Q       E  E  E  E  E  E  Q       Q    Q    Q    Q     
----------------------|-------------------------|----------------------|
------------0----2----|--5--5--3--3--2--2--0----|----------------------|
-------2--------------|-------------------------|--3----2----0----2----|
--3-------------------|-------------------------|----------------------|


  E  E  E  E  E  E  E  E     Q    E  E  E  E  Q       Q    E  E  E  E  Q     
--------------------------|------------------------|------------------------|
--0-----0-----0-----------|-------2--2--3--3--5----|-------2--2--3--3--5----|
-----------------3--2--0--|--3---------------------|--3---------------------|
--------------------------|------------------------|------------------------|


  Q    Q    Q    Q       Q    Q    Q    Q       Q    E  E  Q    E  E   
----------------------|----------------------|------------------------|
--5----3----2----0----|-----------------0----|------------------------|
----------------------|-------2----3---------|--3----3--0-------------|
----------------------|--3-------------------|-------------3----3--0--|


  E  E  E  E  Q    E  E     E  E  Q    E  E  Q       Q    Q    Q    Q     
-------------------------|------------------------|----------------------|
-------------------------|------------------------|----------------------|
--3--3--3--0----------3--|--5----------5----------|--5----3----2----0----|
--------------3----3-----|------------------------|----------------------|


  Q    E  E  E  E  E  E     Q    E  E  E  E  Q       Q    E  E  E  E  E  E   
-------------------------|------------------------|-------------------------|
-------------------------|-------5--5--------7----|-------------------------|
-------5--5--5--5--5--5--|--3----------5--5-------|-------5--5--5--5--5--5--|
--3----------------------|------------------------|--3----------------------|


  Q    E  E  E  E  Q       Q    E  E  E  E  E  E     Q    E  E  E  E  Q     
------------------------|-------------------------|------------------------|
-------5--5--------7----|-------------------------|-------5--5--------7----|
--3----------5--5-------|-------5--5--5--5--5--5--|--3----------5--5-------|
------------------------|--3----------------------|------------------------|


  H        H           Q    H        Q       E  E  E  E  E  E  E  E   
--------------------|---------------------|--------------------------|
--------------------|---------------------|--------------0--0--2--2--|
-----------3--------|--5------------------|--------2--2--------------|
--3-----------------|---------------------|--3--3--------------------|


  E  E  E  E  E  E  E  E     E  E  E  E  E  E  E  E   
--------------------------|--------------------------|
--------------0--0--2--2--|--------------------------|
--------2--2--------------|--3-----3-----3--3--3-----|
--3--3--------------------|--------------------------|


  E  E  E  E  E  E  E  E     E  E  E  E  E  E  E  E   
--------------------------|--------------------------|
--------------------------|--3--5--5--5--3--5--5--5--|
-----5--5--------5--5-----|--------------------------|
--------------------------|--------------------------|


  E  E  E  E  E  E  E  E     E  E  E  E  E  E  E  E   
--------------------------|--------------------------|
--3--5--5--5--3--5--5--5--|--------------------------|
--------------------------|--3-----3-----3--3--3-----|
--------------------------|--------------------------|


  E  E  E  E  E  E  E  E     Q    Q    H          
--------------------------|---------------------||
--------------------------|---------------------||
-----5--5--------5--5-----|---------------------||
--------------------------|--3------------------||





Comments


Popular Operation Ivy tabs & chords
6 To 1 Bass Tabs
Caution Bass Tabs
Face That Screams Bass Tabs
Junkie's Runnin' Dry 1 Bass Tabs
Sound System 2 Bass Tabs
Missionary Tabs
The Crowd 2 Tabs
Vulnerability Intro Tabs
Yellin In My Ear Intro Tabs
Hedgecore Ukulele


Song lyrics



↑ Back to top | Tablatures and chords are parodies/interpretations of the original songs. You may use it for private study, scholarship, research or language learning purposes only
© 2014 AZChords.com Contact us | Privacy policy | DMCA | Add/correct tabs | Request tabs | Top 50 tabs