» » »

Oomph!, Der Strom Tabs (ver.2)

Artists:  A B C D E F G H I J K L M N O P Q R S T U V W X Y Z # 

Der Strom Tabs (ver.2)

Oomph! Tabs
 Rating:
4/5 (4 votes)
Der Strom lessons Tabs too difficult? Try these video lessons and learn fast
                INTRO:
guitar one
d|-----------------------------|
A|-----------------------------|
F|--8-----7------------5--3-5--|
C|-----5-----3--6--5-6---------|x5
G|-----------------------------|
C|-----------------------------|

guitar two (after guitar one plays through once)
d|-----------------------------|
A|-----------------------------|
F|-5------3--------------------|
C|-5------3------3-----6-------|
G|-3------1------3-----6-------|x4
C|---------------3-----6-------|

VERSE: with wah and tremolo (harmonics last time only)
d|-----------------------------------|
A|------------------------------<9>--|
F|-5------3-------------<9>----------|
C|-5------3------3-------------------|
G|-3------1------3-------------------|x4
C|---------------3-------------------|

CHORUS:
d|-----------------------------|
A|-----------------------------|
F|-5------3--------------------|
C|-5------3------3-----6-------|
G|-3------1------3-----6-------|x4
C|---------------3-----6-------|

VERSE:
d|---------------------------------|
A|---------------------------------|
F|---------------------------------|
C|-----5------3-----------8-5------|
G|-3------1-------------6----------|x3
C|---------------3~---8------------|

d|------------------------------------|
A|------------------------------<9>---|
F|-----------------------<9>----------|
C|-----5------3-----------------------|
G|-3------1---------------------------|33
C|---------------3~-------------------|

CHORUS:
d|-----------------------------|
A|-----------------------------|
F|-5------3--------------------|
C|-5------3------3-----6-------|
G|-3------1------3-----6-------|x3
C|---------------3-----6-------|

d|-----------------------------------|
A|-----------------------------------|
F|-5------3--------------------------|
C|-5------3------3-3-3-3-3-3-3-3-----|
G|-3------1------3-3-3-3-3-3-3-3-----|
C|---------------3-3-3-3-3-3-3-3-----|
pm.              . . . . . . . .

BRIDGE:
d|-------------------------------------------------|
A|-------------------------------------------------|
F|-------------------------------------------------|
C|-3333-3~-3-3-3-3-5~-55-6~--6666-6~--6-6-6-6-6-5--|x3
G|-3333-3~-3-3-3-3-5~-55-6~--6666-6~--6-6-6-6-6-5--|
C|-3333-3~-3-3-3-3-5~-55-6~--6666-6~--6-6-6-6-6-5--|
pm.....    . . . .    ..     ....     . . . . . 

d|----------------------------------------------|
A|----------------------------------------------|
F|----------------------------------------------|
C|-3333-3~-3-3-3-3-5~-55-6~--6666-6~--55555555--|
G|-3333-3~-3-3-3-3-5~-55-6~--6666-6~--33333333--|
C|-3333-3~-3-3-3-3-5~-55-6~--6666-6~------------|
pm.....    . . . .    ..     ....     


CHORUS:
d|-----------------------------|
A|-----------------------------|
F|-5------3--------------------|
C|-5------3------3-----6-------|
G|-3------1------3-----6-------|x4
C|---------------3-----6-------|

OUTRO:
guitar one
d|-----------------------------|
A|-----------------------------|
F|--8-----7------------5--3-5--|
C|-----5-----3--6--5-6---------|x3
G|-----------------------------|
C|-----------------------------|

guitar two
d|-----------------------------|
A|-----------------------------|
F|-5------3--------------------|
C|-5------3------3-----6-------|
G|-3------1------3-----6-------|x3
C|---------------3-----6-------|

guitar one
d|--------------------------|
A|--------------------------|
F|--8-----7-----------------|
C|-----5-----3--3~----------|
G|--------------------------|
C|--------------------------|

guitar two
d|--------------------------|
A|--------------------------|
F|-5------3-----------------|
C|-5------3------3~---------|
G|-3------1------3~---------|
C|---------------3~---------|
            
Submit corrections

comments powered by Disqus
↑ Back to top | Oomph! Tabs for Der Strom. Lyrics for acoustic guitar and electric guitar. Tablatures and chords are parodies/interpretations of the original songs. You may use it for private study, scholarship, research or language learning purposes only