>
 >
Der Strom

Der Strom Guitar Tabs

Oomph! - Der Strom chords, tabs, tablatures, lyrics

Guitar lessons | Add/correct | Request | Top 50 tabs Artists:  A B C D E F G H I J K L M N O P Q R S T U V W X Y Z 0-9

Der Strom Guitar Tabs – Oomph!

CD, Sheet music, Poster

Do you like Der Strom? Share with your friends now
Bass TabsTabsTabs v2
Intro
e|------------------------------|
B|------------------------------|
G|------------------------------|
D|-----11\3-10\1--4-3-4-8-6-8---|x5
A|------------------------------|
D|------------------------------|

After first time, guitar two plays this
e|-----------------------|
B|-----------------------|
G|-----------------------|
D|--8------6----1----4---|x4
A|--8------6----1----4---|
D|--8------6----1----4---|


Verse:

Guitar one
clean with tremolo and wah 
e|-----------------------|
B|-----------------------|
G|-----------------------|
D|--8------6----1--------|x4
A|--8------6----1--------|
D|--8------6----1--------|

guitar two
on the fourth time
e|-----------------------|
B|-----------------------|
G|-------<7>-------------|
D|--------------<8>------|
A|-----------------------|
D|-----------------------|

Chorus
e|-----------------------|
B|-----------------------|
G|-----------------------|
D|--8------6----1----4---|x4
A|--8------6----1----4---|
D|--8------6----1----4---|

Verse two

Guitar one
clean with tremolo and wah 
e|-----------------------|
B|-----------------------|
G|-----------------------|
D|--8------6----1--------|x4
A|--8------6----1--------|
D|--8------6----1--------|


Guitar 3
e|-------------------------------|
B|-------------------------------|
G|-------------------------------|
D|---------------------3--6--3---|x4
A|----8----6--------1------------|
D|--8----6------1----------------|

Guitar 2
on fourth time
e|-----------------------|
B|-----------------------|
G|------<7>--------------|
D|--------------<8>------|
A|-----------------------|
D|-----------------------|

Chorus:
e|-----------------------|
B|-----------------------|
G|-----------------------|
D|--8------6----1----4---|x3
A|--8------6----1----4---|
D|--8------6----1----4---|

e|-----------------------|
B|-----------------------|
G|-----------------------|
D|--8------6----1--------|
A|--8------6----1--------|
D|--8------6----1--------|

Bridge:
e|---------------------------------------------|
B|---------------------------------------------|
G|---------------------------------------------|
D|-111111-1-1-1-1-1-1-3-4-4444-4-4-4-4-4-4-4~--|x3
A|-111111-1-1-1-1-1-1-3-4-4444-4-4-4-4-4-4-4~--|
D|-111111-1-1-1-1-1-1-3-4-4444-4-4-4-4-4-4-4~--|

e|-----------------------------------|
B|-----------------------------------|
G|-----------------------------------|
D|-111111-1-1-1-1-1-1-3-4-4444-4-4---|
A|-111111-1-1-1-1-1-1-3-4-4444-4-4---|
D|-111111-1-1-1-1-1-1-3-4-4444-4-4---|


e|----------------------|
B|----------------------|
G|----------------------|
D|--1-1-1-1-1-1-1-1-----|
A|--1-1-1-1-1-1-1-1-----|
D|--1-1-1-1-1-1-1-1-----|

Chorus:
e|-----------------------|
B|-----------------------|
G|-----------------------|
D|--8------6----1----4---|x4
A|--8------6----1----4---|
D|--8------6----1----4---|

Outro

Guitar one
e|------------------------------|
B|------------------------------|
G|------------------------------|
D|-----11\3-10\1--4-3-4-8-6-8---|x3
A|------------------------------|
D|------------------------------|

Guitar two
e|-----------------------|
B|-----------------------|
G|-----------------------|
D|--8------6----1----4---|x3
A|--8------6----1----4---|
D|--8------6----1----4---|


Guitar one
e|-----------------------|
B|-----------------------|
G|-----------------------|
D|-----11\3-10\1---------|
A|-----------------------|
D|-----------------------|

Guitar two
e|-----------------------|
B|-----------------------|
G|-----------------------|
D|--8------6----1--------|
A|--8------6----1--------|
D|--8------6----1--------|





Comments


Popular Oomph! tabs & chords
Augen Auf! Tabs
Augen Auf! 1 Tabs
Come And Kick Me Intro Tabs
Diesmal Wirst Du Sehn Tabs
Gekreuzigt Tabs
Inri Vs Jahwe 1 Tabs
Kill Me Again Tabs
Nothing Is Real Tabs
Supernova Tabs
Tief In Dir Tabs


Song lyrics



↑ Back to top | Tablatures and chords are parodies/interpretations of the original songs. You may use it for private study, scholarship, research or language learning purposes only
© 2014 AZChords.com Contact us | Privacy policy | DMCA | Add/correct tabs | Request tabs | Top 50 tabs