» » »

Oomph!, Das Letzte Streichholz Tabs (ver.2)

Artists:  A B C D E F G H I J K L M N O P Q R S T U V W X Y Z # 

Das Letzte Streichholz Tabs (ver.2)

Oomph! Tabs
Rating:
0/5 (0 votes)
Das Letzte Streichholz lessons Tabs too difficult? Try these video lessons and learn fast
                
Intro x1

D|-------------------------|
A|-------------------------|
D|-------------------------|
G|-------------------------|
H|------12~--13~--10~12~13~|
e|-12~---------------------|

Verse x4

D|-------------------------------------------------|
A|-------------------------------------------------|
D|-------------------------------------------------|
G|-------------------------------------------------|
H||-----12~--13~--10~12~13~-----12~--13~--10~12~13~|
e|-12~---------------------11~---------------------|

Prechorus x1

D|-------------------------------|
A|-------------------------------|
D|-------------------------------|
G|--------------------7~--5~--9~-|
H|--------------8~--8~-----------|
e|-10~--8~--7~----7~-------------|

Actually there's just this melodic guitarpart during the Verse and some bass riffs which 
didn't want to figure out yet...anyway: I did make up some chords which fit with the 
part:

Verse (mute all) x4

D|-7-7-7-7-7-7-7-7-7-7-7-7-7--9--9-10-3-3-3-3-3-3-3-3-3-3-3-3-3-5-5-5-|
A|-7-7-7-7-7-7-7-7-7-7-7-7-7--9--9-10-3-3-3-3-3-3-3-3-3-3-3-3-3-5-5-5-|
D|-7-7-7-7-7-7-7-7-7-7-7-7-7--9--9-10-3-3-3-3-3-3-3-3-3-3-3-3-3-5-5-5-|
G|-9-9-9-9-9-9-9-9-9-9-9-9-9-11-11-12-5-5-5-5-5-5-5-5-5-5-5-5-5-7-7-7-|
H|--------------------------------------------------------------------|
e|--------------------------------------------------------------------|

Prechorus (mute all) x1

D|-5-5-5-5-5-5-5-5-5-5-5-5-5-5-5-5-0-0-0-0-0-0-0-0-0-0-0-0-0~--|
A|-5-5-5-5-5-5-5-5-5-5-5-5-5-5-5-5-0-0-0-0-0-0-0-0-0-0-0-0-0~--|
D|-5-5-5-5-5-5-5-5-5-5-5-5-5-5-5-5-0-0-0-0-0-0-0-0-0-0-0-0-0~--|
G|-7-7-7-7-7-7-7-7-7-7-7-7-7-7-7-7-2-2-2-2-2-2-2-2-2-2-2-2-2~--|
H|-------------------------------------------------------------|
e|-------------------------------------------------------------|

Chorus x1

D|-7-7-7-7-7-7-7-7-7-7-7-7-7-7-7-7-3-3-3-3-3-3-3-3-3-3-3-3-3-3-3-3-|
A|-7-7-7-7-7-7-7-7-7-7-7-7-7-7-7-7-3-3-3-3-3-3-3-3-3-3-3-3-3-3-3-3-|
D|-7-7-7-7-7-7-7-7-7-7-7-7-7-7-7-7-3-3-3-3-3-3-3-3-3-3-3-3-3-3-3-3-|
G|-9-9-9-9-9-9-9-9-9-9-9-9-9-9-9-9-5-5-5-5-5-5-5-5-5-5-5-5-5-5-5-5-|
H|-----------------------------------------------------------------|
e|-----------------------------------------------------------------|

D|-5-5-5-5-5-5-5-5-5-5-5-5-5-5-5-5-0-0-0-0-0-0-0-0-0-0-0-0-0-3-3-3-|
A|-5-5-5-5-5-5-5-5-5-5-5-5-5-5-5-5-5-5-5-5-5-5-5-5-5-5-5-5-5-3-3-3-|
D|-5-5-5-5-5-5-5-5-5-5-5-5-5-5-5-5-0-0-0-0-0-0-0-0-0-0-0-0-0-3-3-3-|
G|-7-7-7-7-7-7-7-7-7-7-7-7-7-7-7-7-7-7-7-7-7-7-7-7-7-7-7-7-7-5-5-5-|
H|-----------------------------------------------------------------|
e|-----------------------------------------------------------------|

Verse (mute all) x2

Prechorus (mute all) x1

Chorus x2; then play this

D|---------------------|
A|---------------------|
D|---------------------|
G|---------------------|
H|------12~--13~--10~--|
e|-12~-----------------|

Bridge (mute all from the beginning & slowly stop muting in the end)

D|-12-12-12-7-7-7-10-10-10-7-7-7-7-7-7-7-|
A|-12-12-12-7-7-7-10-10-10-7-7-7-7-7-7-7-|
D|-12-12-12-7-7-7-10-10-10-7-7-7-7-7-7-7-|
G|-14-14-14-9-9-9-12-12-12-9-9-9-9-9-9-9-|
H|---------------------------------------|
e|---------------------------------------|

D|-12-12-12-7-7-7-10-10-10-3-3-3-3-3-3-3-3-3-3-3-3-|
A|-12-12-12-7-7-7-10-10-10-3-3-3-3-3-3-3-3-3-3-3-3-|
D|-12-12-12-7-7-7-10-10-10-3-3-3-3-3-3-3-3-3-3-3-3-|
G|-14-14-14-9-9-9-12-12-12-5-5-5-5-5-5-5-5-5-5-5-5-|
H|-------------------------------------------------|
e|-------------------------------------------------|

Chorus x2; then play this

D|---------------------|
A|---------------------|
D|---------------------|
G|---------------------|
H|------12~--13~--10~--|
e|-12~-----------------|

That's it, it's a really good song and the video is one of the best I've ever seen...

If you want to, you could also play this melodic part which I made up. It fits with the Chorus:

D|-------------------------------------------------|
A|-------------------------------------------------|
D|-------------------------------------------------|
G|-------14-------14-------------14-------14-------|
H|----13-------13-------13----13-------13-------13-|
e|-12-------12-------12----12-------12-------12----|

D|-------------------------------------------------|
A|-------------------------------------------------|
D|-------------------------------------------------|
G|-------14-------14-------------14-------14-------|
H|----13-------13-------13----13-------13-------13-|
e|-13-------13-------13----13-------13-------13----|

D|-------------------------------------------------|
A|-------------------------------------------------|
D|-------------------------------------------------|
G|-------12-------12-------------12-------12-------|
H|----12-------12-------12----12-------12-------12-|
e|-10-------10-------10----10-------10-------10----|

D|-----------------------------------------------|
A|-----------------------------------------------|
D|-----------------------------------------------|
G|-------7-------7-------------7--------7--------|
H|----10------10------10----10-------10-------10-|
e|-10------10------10----10------10-------10-----|

This is the first tab I've ever made in my life. Please rate it, but please be gentle ;D
            
Submit corrections

comments powered by Disqus
↑ Back to top | Oomph! Tabs for Das Letzte Streichholz. Lyrics for acoustic guitar and electric guitar. Tablatures and chords are parodies/interpretations of the original songs. You may use it for private study, scholarship, research or language learning purposes only