» » »

Das Letzte Streichholz Tabs (ver.1)

Artists:  A B C D E F G H I J K L M N O P Q R S T U V W X Y Z # 

Das Letzte Streichholz Tabs (ver.1)

Oomph!
Rating:
0/5 (0 votes)

Hard to play? Try these video lessons and learn fast.
                Das letzte Streichholz - The last match

Couldn't find any (easy to read) correct tabs for this, so i decided to make my own...

Tuning is C Sharp/ D flat (whichever one you prefer to call it)
I'm going to label the tabs in C#. which is:

C# G# C# F# A# D#



INTRO
D#|-12---------------------|
A#|-----12--13--10--12--13-|
F#|------------------------|
C#|------------------------|
G#|------------------------|
C#|------------------------| 

VERSE
D#|-12------------------------11---------------------|
A#|-----12--13--10--12--13--------12--13--10--12--13-|
F#|--------------------------------------------------|
C#|--------------------------------------------------|
G#|--------------------------------------------------|
C#|--------------------------------------------------|

PRE-CHORUS
D#|--10--8--7-----7--------------|
A#|------------8-----8-----------|
F#|----------------------7--5--9-|
C#|------------------------------|
G#|------------------------------|
C#|------------------------------|

CHORUS 
D#|------------------------------------|    NOTE: Each chord is played 16
A#|------------------------------------|    times, not 8 as is shown here.
F#|------------------------------------|    I left it like this to keep it
C#|--7-7-7-7-7-7-7-7---3-3-3-3-3-3-3-3-|    easy to read.
G#|--7-7-7-7-7-7-7-7---3-3-3-3-3-3-3-3-|
C#|--7-7-7-7-7-7-7-7---3-3-3-3-3-3-3-3-|

D#|------------------------------------|    
A#|------------------------------------|
F#|------------------------------------|
C#|--5-5-5-5-5-5-5-5---0-0-0-0-0-0-0-0-|
G#|--5-5-5-5-5-5-5-5---0-0-0-0-0-0-0-0-|
C#|--5-5-5-5-5-5-5-5---0-0-0-0-0-0-0-0-|

'PRE-BRIDGE' and 'OUTRO'
D#|-12---------------|
A#|-----12--13--10---|
F#|------------------|
C#|------------------|
G#|------------------|
C#|------------------| 

BRIDGE (palm muting)
D#|-------------------------------------------------|
A#|-------------------------------------------------|
F#|-------------------------------------------------|
C#|--12-12-12---7-7-7---10-10-10---7-7-7-7-7-7-7-7--|
G#|--12-12-12---7-7-7---10-10-10---7-7-7-7-7-7-7-7--|
C#|--12-12-12---7-7-7---10-10-10---7-7-7-7-7-7-7-7--|

D#|-----------------------------------------------------------|
A#|-----------------------------------------------------------|
F#|-----------------------------------------------------------|
C#|--12-12-12---7-7-7---10-10-10---3-3-3-3-3-3-3-3-3-3-3-3----|
G#|--12-12-12---7-7-7---10-10-10---3-3-3-3-3-3-3-3-3-3-3-3----|
C#|--12-12-12---7-7-7---10-10-10---3-3-3-3-3-3-3-3-3-3-3-3----|
___________________________________^_____________________^_____
                  reduce pressure on palm-mute around here
_______________________________________________________________



Order:

x1-Intro
x4-Verse
x1-Pre-Chorus
x1-Chorus
x2-Verse
x1-Pre-Chorus
x2-Chorus
x1-Pre-Bridge
x2-Chorus
x1-Outro

________________________________________________________________

I'm pretty sure that's correct, any mistakes just leave a comment...

my email is 
            
Hard to play? Try these video lessons and learn fast. | Correct




comments powered by Disqus
↑ Back to top | Tablatures and chords are parodies/interpretations of the original songs. You may use it for private study, scholarship, research or language learning purposes only