>
 >
Stop And Stare 2

Stop And Stare 2 Bass Tabs

Onerepublic - Stop And Stare 2 chords, tabs, tablatures, lyrics

Guitar lessons | Add/correct | Request | Top 50 tabs Artists:  A B C D E F G H I J K L M N O P Q R S T U V W X Y Z 0-9

Stop And Stare 2 Bass Tabs – Onerepublic

CD, Sheet music, Poster

Do you like Stop And Stare 2? Share with your friends now
Bass TabsBass Tabs v2ChordsChords v2Chords v3Chords v4Chords v5Chords v6TabsTabs v2Ukulele
======================================================================

                      Stop & Stare - OneRepublic

======================================================================



Tuning: Standard

Verse
=====
  +   +   +   +    +   +   +   +    +   +   +   +    +   +   +   +
G|----------------|----------------|----------------|----------------|
D|----------------|----------------|7-7-7-7-7-7-7-7-|9-----7----9----|
A|----------------|------6----7----|----------------|----------------|
E|9-9-9-9-9-9-9-9-|9---------------|----------------|----------------|

  +   +   +   +    +   +   +   +    +   +   +   +    +   +   +   +
G|6-6-6---6-9---6-|6-6-6---6-9-----|----------------|----------------|
D|------9---------|------9-------9-|7-7-7-7-7-7-9\--|----------------|
A|----------------|----------------|----------------|0-0-0-0-0-2-2-2-|
E|----------------|----------------|----------------|----------------|

Chorus
======
  +   +   +   +    +   +   +   +    +   +   +   +    +   +   +   +
G|----------------|----------------|----------------|----------------|
D|----------------|----------------|----------------|----------------|
A|----------------|----------------|2-2-2-2-2-2-2-2-|2-2-2-2-2-0-2-0-|
E|0-0-0-0-0-0-0-0-|0-0-0-0-0-2-2-2-|----------------|----------------|

  +   +   +   +    +   +   +   +    +   +   +   +    +   +   +   +
G|----------------|----------------|----------------|----------4-4-4-|
D|----------------|------4-6-4-----|----------------|7-7-7-7-7-------|
A|4-4-4-4-6-6-6-6-|6-7-7-------7-4-|0-0-0-0-0-0-0-0-|----------------|
E|----------------|----------------|----------------|----------------|

  +   +   +   +    +   +   +   +    +   +   +   +    +   +   +   +
G|----------------|----------------|----------------|----------------|
D|----------------|----------------|----------------|----------------|
A|----------------|----------------|2-2-2-2-2-2-2-2-|2-2-2-2-2-0-2-0-|
E|0-0-0-0-0-0-0-0-|0-0-0-2-2-4-4-2-|----------------|----------------|

  +   +   +   +    +   +   +   +    +   +   +   +    +   +   +   +
G|----------------|----------------|----------------|------4-4-------|
D|----------------|----------------|----------------|7-7-7-----7-7-7-|
A|4-4-4-4-4-4-4-4-|4-4-4-6-6-7-7-4-|0-0-0-0-0-0-0-0-|----------------|
E|----------------|----------------|----------------|----------------|

  +   +   +   +    +   +   +   +
G|----------------|----------------|
D|----------------|----------------|
A|----------------|------------2/--|
E|0---------------|----------------|

Verse
=====
  +   +   +   +    +   +   +   +    +   +   +   +    +   +   +   +
G|----------------|----------------|----------------|----------------|
D|----------------|----------------|9-9-9-9-9-9-9-9-|9-9-9-9-9-7-9-7-|
A|7-7-7-7-7-7-7-7-|7-7-7-7-7-9-9-9-|----------------|----------------|
E|----------------|----------------|----------------|----------------|

  +   .   +   .    +   .   +   .    +   .   +   .    +   .   +   .
G|----------------|----11--11--11--|----------------|----------------|
D|11--11--11--14--|14--------------|14--14--14--14--|14--11--11--11--|
A|----------------|----------------|----------------|----------------|
E|----------------|----------------|----------------|----------------|

  +   +   +   +    +   +   +   +    +   +   +   +    +   +   +   +
G|----------------|----------------|----------------|----------------|
D|7-7-7-7-7-7-7-7-|7-9-9-9-9-7-7-7-|----------------|----------------|
A|----------------|----------------|----------------|6-6-6-6-7-7-7-7-|
E|----------------|----------------|9-9-9-9-9-9-9-9-|----------------|

  +   +   +   +    +   +   +   +
G|----------------|--------6-6-6-6-|
D|7-7-7-7-7-7-7-7-|9-9-9-9---------|
A|----------------|----------------|
E|----------------|----------------|

Chorus
======
  +   +   +   +    +   +   +   +    +   +   +   +    +   +   +   +
G|----------------|----------------|----------------|--------4-4-4-4-|
D|----------------|----------------|----------------|----------------|
A|----------------|----------------|2-2-2-2-2-2-2-2-|2-2-2-2---------|
E|0-0-0-0-0-0-0-0-|0-0-0-0-2-2-4-4-|----------------|----------------|

  +   +   +   +    +   +   +   +    +   +   +   +    +   +   +   +
G|6-6-6-6-6-6-6-4-|6-6-6-4-6-6-6-6-|----------------|----------------|
D|----------------|----------------|----------------|7-7-7-9-9-797-9-|
A|----------------|----------------|0-0-0-0-0-0-0-0-|----------------|
E|----------------|----------------|----------------|----------------|

  +   +   +   +    +   +   +   +    +   +   +   +    +   +   +   +
G|----------------|----------------|----------------|----------------|
D|----------------|----------------|----------------|------2-2-1-1-1-|
A|----------------|----------------|2-2-2-2-2-2-2-2-|2-2-2-----------|
E|0-0-0-0-0-0-0-0-|0-2-2-4-4-2-4-2-|----------------|----------------|

  +   +   +   +    +   +   +   +    +   +   +   +    +   +   +   +
G|----------------|----------------|----------------|--6-6-----------|
D|----------------|----------------|7-7-7-7-7-7-7-9-|9-----9-797-----|
A|4-4-4-4-4-4-4-4-|4-6-6-7-7-6-6-6-|----------------|------------9-9-|
E|----------------|----------------|----------------|----------------|

Outro
=====
  +   +   +   +    +   +   +   +    +   +   +   +    +   +   +   +
G|----------------|----------------|----------------|----------------|
D|----------------|----------------|----------------|----------4-2---|
A|7-7-7-7-7-9-9-9\|----------------|2-2-2-2-2-2-2-0-|2-2-2-0-2-----2-|
E|----------------|0-0-0-2-2-4-4-4-|----------------|----------------|

  +   +   +   +    +   +   +   +    +   +   +   +    +   +   +   +
G|----------------|----------------|2-2-2-2-2-2-2-2-|4-4-4-4-4-4-4-4-|
D|----------1-1-1-|2-2-4-4-4-2-4-2-|----------------|----------------|
A|4-4-4-4-4-------|----------------|----------------|----------------|
E|----------------|----------------|----------------|----------------|

  +   +   +   +
G|----------------|
D|2---------------|
A|----------------|
E|0---------------|





Comments


Popular Onerepublic tabs & chords
Mercy Bass Tabs
All This Time Chords
Apologize 8 Chords
Feel Again 1 Chords
Good Life 6 Chords
Mercy Chords
Secrets 3 Chords
Everybody Loves Me Tabs
Stop And Stare 1 Tabs
Marching On Ukulele


Song lyrics



↑ Back to top | Tablatures and chords are parodies/interpretations of the original songs. You may use it for private study, scholarship, research or language learning purposes only
© 2014 AZChords.com Contact us | Privacy policy | DMCA | Add/correct tabs | Request tabs | Top 50 tabs