» » »

Onerepublic, Passenger Chords (ver.2)

Artists:  A B C D E F G H I J K L M N O P Q R S T U V W X Y Z # 

Passenger Chords (ver.2)

Onerepublic Tabs
 Rating:
4/5 (4 votes)
Passenger lessons Tabs too difficult? Try these video lessons and learn fast
                Just heard this song and love it. It's 100% correct. Learned it on guitar, and 
piano and checked with the song and the chords are right.

Chords Used:

   F#     C#     Ebm      B
e|-2------4-------6-------2-------------------------------------|
B|-2------6-------7-------4-------------------------------------|
G|-3------6-------8-------4-------------------------------------|
D|-4------6-------8-------4-------------------------------------|
A|-4------4-------6-------2-------------------------------------|
E|-2------4-------6-------2-------------------------------------|


e|--6-/14-13-6-----6-/14-13-6-----6-/14-13-6-----6-/14-13-6-----|
B|--------------------------------------------------------------|
G|--------------------------------------------------------------|
D|--------------------------------------------------------------|
A|--------------------------------------------------------------|
E|--------------------------------------------------------------|

           F#               C#               Ebm         B    
I saw your face, stuck in a crowd Silently screaming out loud
           F#              C#              Ebm              B
I felt the beat echo your heart Throw me a line cuz its too far
             F#                 C#                Ebm              B
All that you want, all that you see, all that you thought that you believe
        F#                         C#                Ebm             B
Is it enough? Do you think its too much? You say you only trust what you can touch

BRIDGE

Ebm            C#           B ..
All you got to do is reach out for it 

CHORUS

F#m          C#      Ebm               B
All that you want is standing right in front of you
F#m          C#      Ebm     B
All that you need is love....
F#m          C#      Ebm               B
All that you want Is standing right in front of you 
F#m          C#      Ebm     B
All that you need is love...

F#m, C#, Ebm, B 

Walk to the ledge, put out my hands, scared to the bones of where i'd land Trade 
in my fears, trade in my faults they disappear behind your walls
All that i want, all that i need all that i thought i believed
Was it enough? Sure not too much? Now youre the only thing that i can trust

Ebm            C#           B ..
All I got to do is reaach out for it

F#m, C#, Ebm, B

All that you want is standing right in front of you
All that you need is love....
All that you want is standing right in front of you
All that you need is love...
 

(Instrumental)
B   C#      Ebm   B   C#      Ebm
Its all for you...Its all for you...

Hope you liked it. Rate it if you did :p
            
Submit corrections

comments powered by Disqus
↑ Back to top | Onerepublic Chords for Passenger. Lyrics for acoustic guitar and electric guitar. Tablatures and chords are parodies/interpretations of the original songs. You may use it for private study, scholarship, research or language learning purposes only