» » »

Onerepublic, Apologize Tabs (ver.10)

Artists:  A B C D E F G H I J K L M N O P Q R S T U V W X Y Z # 

Apologize Tabs (ver.10)

Onerepublic Tabs
Rating:
0/5 (0 votes)
Hard to play? Try these video lessons and learn fast.
                -------------------------------------------------------------------------------
                   Apologize - Timbaland ft. One Republic
-------------------------------------------------------------------------------

I got here ver 2, but it sux and i made it unregistered, this version is much better...

Tuning: EADGBe

this tab really sounds with the song.

its much easier with capo on the 3rd fred.

e|-------------|-------------|-------------|--------------|
B|--4-4--4-4---|-------4-4---|--4-4--4-4---|---6-6--6-6---|
G|-(5)----5-5--|-(5)5---5-5--|-(3)----3-3--|--(3)----3-3--|
D|-------------|--3----------|-------------|--------------|
A|--3----------|-------------|--6----------|---5----------|
E|-------------|--4----------|-------------|--------------|

if u dont have a capo and dont wanna play with the song, u can play it lower - this way:


       Am             F             C             G
e|-------------|-------------|-------------|--------------|
B|--1-1--1-1---|-------1-1---|--1-1--1-1---|---3-3--3-3---|
G|-(2)----2-2--|-(2)2---2-2--|-(0)----0-0--|--(0)----0-0--|
D|-------------|--0----------|-------------|--------------|
A|--0----------|-------------|--3----------|---2----------|
E|-------------|--1----------|-------------|--------------|

You can play also F and G like this, so its much easier.

        F             G
e|-------------|--------------|
B|-------------|---0-0--0-0---|
G|-(2)2--2-2---|--(0)----0-0--|
D|--0-----0-0--|--------------|
A|-------------|---2----------|
E|--1----------|--------------|


These chords - Am F C G -, in this order, go through the whole song (if u wanna play 
the song, u should also have a capo on the 3rd fred)

(x) - doesn’t have to be played, so it makes the playin more simple, gl n hf

Queenas ;)
            

comments powered by Disqus
↑ Back to top | Onerepublic Tabs for Apologize. Lyrics for acoustic guitar and electric guitar. Tablatures and chords are parodies/interpretations of the original songs. You may use it for private study, scholarship, research or language learning purposes only