» » »

Onerepublic, Apologize Bass tabs (ver.1)

Artists:  A B C D E F G H I J K L M N O P Q R S T U V W X Y Z # 

Apologize Bass tabs (ver.1)

Onerepublic Tabs
 Rating:
4/5 (9 votes)
Apologize lessons Tabs too difficult? Try these video lessons and learn fast
1
                ----------------------------------------------------------------------------
One Republic feat. Timbaland - Apologize
----------------------------------------------------------------------------

This song  is simple, but not that easy to hear when to play since One Republic don't
an el. bass. They use a cello or something:P According to the video though. But here is
to play anyway. Please remember this is my first tab:P but listen to the beat.(the 
timbaland beat:P) and play the notes after that:)

----------------------------------------
Tabs
----------------------------------------
Intro
|---Nothing---------------------------|
|---Nothing---------------------------|
|---Nothing---------------------------|
|---Nothing---------------------------|

----------------------------------------

Verse 1
|---Nothing---------------------------|
|---Nothing---------------------------|
|---Nothing---------------------------|
|---Nothing---------------------------|

I'm holding on your rope...

----------------------------------------

Chorus 1
|-------------------------------------| x2
|-------------------------------------|
|-3~33------------6~666-66-6-5~555-55-|
|-------4~444-44----------------------|

It's too late to apologize...

(can also be played like this, but I like the first one better, but I variate)

|-------------------------------------| x2
|-------6~666-66--8~88--8~888-88------|
|-3~33--------------------------------|
|-------------------------------------|

----------------------------------------

Post-verse
|-------------------------------------| x1
|-------------------------------------|
|-3~33------------6~666-66-6-5~555-55-|
|-------4~444-44----------------------|

Oh yeah, ohh...
----------------------------------------

Verse 2
|-------------------------------------| x4
|-------------------------------------|
|-3~33------------6~66--5~555-55------|
|-------4~444-44----------------------|

I'd take another chance...

----------------------------------------

Chorus 2
|-------------------------------------| x2
|-------------------------------------|
|-3~33------------6~666-66-6-5~555-55-|
|-------4~444-44----------------------|

It's too late to apologize...

(can also be played like this, but I like the first one better, but I variate)

|-------------------------------------| x2
|-------6~666-66--8~88--8~888-88------|
|-3~33--------------------------------|
|-------------------------------------|

----------------------------------------

Bridge
|-------------------------------------|  x2
|------------6~~---------8~~~~--------|
|-3~~---------------------------------|
|-------------------------------------|

Whoa, whoa...

----------------------------------------

Chorus 3
|-------------------------------------| x4
|-------------------------------------|
|-3~33------------6~666-66-6-5~555-55-|
|-------4~444-44----------------------|

It's too late to apologize...

(can also be played like this, but I like the first one better, but I variate)

|-------------------------------------| x4
|-------6~666-66--8~88--8~888-88------|
|-3~33--------------------------------|
|-------------------------------------|

----------------------------------------

Outro
|------Nothing------------------------|
|------Nothing------------------------|
|------Nothing------------------------|
|------Nothing------------------------|

I'm holding on your rope...

----------------------------------------

-------------------------------------------------------
Lyrics:
-------------------------------------------------------
Verse 1
--------
I'm holding on your rope,
Got me ten feet off the ground
I'm hearin what you say but I just can't make a sound
You tell me that you need me
Then you go and cut me down, but wait
You tell me that you're sorry
Didn't think I'd turn around, and say...
-------------------------------------------------------
Chorus 1
---------
It's too late to apologize, it's too late
I said it's too late to apologize, it's too late
-------------------------------------------------------
Verse 2
--------
I'd take another chance, take a fall
Take a shot for you
And I need you like a heart needs a beat
But it's nothin new
I loved you with a fire red-
Now it's turning blue, and you say...
"Sorry" like the angel heaven let me think was you
But I'm afraid...
-------------------------------------------------------
Chorus 2
---------
It's too late to apologize, it's too late
I said it's too late to apologize, it's too late
-------------------------------------------------------
Bridge (guitar/piano)
-------------------------------------------------------
Chorus 3
---------
It's too late to apologize, it's too late
I said it's too late to apologize, it's too late
It's too late to apologize, yeah
I said it's too late to apologize, yeah-
-------------------------------------------------------
Outro
------
I'm holdin on your rope,
got me ten feet off the ground...
-------------------------------------------------------


I'm kind of satisfied with it:) enjoy;)
            
Submit corrections

comments powered by Disqus
↑ Back to top | Onerepublic Bass for Apologize. Lyrics for acoustic guitar and electric guitar. 1 Tablatures and chords are parodies/interpretations of the original songs. You may use it for private study, scholarship, research or language learning purposes only