» » »

Onerepublic, Apologize Tabs (ver.9)

Artists:  A B C D E F G H I J K L M N O P Q R S T U V W X Y Z # 

Apologize Tabs (ver.9)

Onerepublic Tabs
 Rating:
4/5 (4 votes)
Apologize lessons Tabs too difficult? Try these video lessons and learn fast
                
ONE REPUBLIC

CAPO 1ST FRET
Chords Used:
  1        2      3       4
--2--	--0--	--2--	--0--
--3--	--0--	--3--	--2--
--2--	--0--	--2--	--2--
--4--	-----	--0--	--2--
--2--	-----	-----	--0--
--2--	--3--	-----	-----



Intro: 2X
e|-------------------|-------------------|-----2---2---2-----|-------------------|
B|-------------------|-----0---0---0-----|-------3---3---3---|-----2---2---2-----|
G|--2--2---2---2-----|--0----0---0---0---|--2----------------|--2----2---2---2---|
D|-------4---4---4---|-------------------|--0----------------|-------------------|
A|-------------------|-------------------|-------------------|--0----------------|
E|--2----------------|--3----------------|-------------------|-------------------|   

        1 	              2	                  3		      4

single tap

Verse 1: 4X
e|--------------------------------2------------------|
B|-------------------0--0-------3---3----------2-----|
G|-------2--2--------0--0-----2--------------2---2---|
D|-------4--4---------------0-------------2----------|
A|--2-2---------------------------------0------------|
E|--------------3-3----------------------------------|

	1	       2	   3		4


Chorus: 2X
e|-----------------------2-------------------|
B|---------------------3---3-----------2-----|
G|--2------0---------2---------------2---2---|
D|--4--------------0--------------2----------|
A|--2---------------------------0------------|
E|---------3---------------------------------|  
	^	^			     
    1      2            3             4   


(verse 2: “But I’m afraid..” strum 4 once and then hold” & a single tap to go to last chorus)



(Last Chorus:4X) softer
e|-----------------------2-------------------|
B|---------------------3---3-----------2-----|
G|--2------0---------2---------------2---2---|
D|--4--------------0--------------2----------|
A|--2---------------------------0------------|
E|---------3---------------------------------|  
	^	^			   ^
    1      2            3             4   







single tap from last chorus to outro

Outro:1X
e|-------------------|-------------------|-----2---2---2-----|-------------------|
B|-------------------|-----0---0---0-----|-------3---3---3---|-----2---2---2-----|
G|--2--2---2---2-----|-------0---0---0---|--2----------------|--2----2---2---2---|
D|-------4---4---4---|--0----------------|--0----------------|-------------------|
A|-------------------|-------------------|-------------------|--0----------------|
E|--2----------------|--3----------------|-------------------|-------------------|   
 
        1 	             2	                 3		      4


Verse 1:
  1       
I'm holding on your rope, 
         2                3            4
Got me ten feet off the ground
      1 		       2	          3 		   4
I'm hearin what you say but I just can't make a sound
	1
You tell me that you need me 
     2		       3           4
Then you go and cut me down, but wait
  1	
You tell me that you're sorry
 2			   3		 4
Didn't think I'd turn around, and say...


Chorus 1:
      1       ^       2     ^     3          4    
It's too late to apologize, it's too late
             1	    ^	    2      ^    3          4      
I said it's too late to apologize, it's too late

Verse 2:
  1  		                 2
I'd take another chance, take a fall 
		  3		4
Take a shot for you
     1				     2		
And I need you like a heart needs a beat 
		  3           4
But it's nothin new
   1			  2
I loved you with a fire red-
                  3			4
Now it's turning blue, and you say...
  1		          2	               3
"Sorry" like the angel heaven let me think was you
  4  (strum once and hold)
But I'm afraid...             ^

Chorus 2:
      1       ^       2     ^     3          4    
It's too late to apologize, it's too late
             1	   ^	    2     ^     3          4      ^
I said it's too late to apologize, it's too late
      1      ^         2     ^     3           4
It's too late to apologize, it's too late
             1      ^          2   ^     3          4
I said it's too late to apologize, it's too late...        ^


Fade...


-------------------------------------------------------------------
this is my first tab ever, it might not be perfect so go easy on me
            
Submit corrections

comments powered by Disqus
↑ Back to top | Onerepublic Tabs for Apologize. Lyrics for acoustic guitar and electric guitar. Tablatures and chords are parodies/interpretations of the original songs. You may use it for private study, scholarship, research or language learning purposes only